Oops, an error
Loading. Please wait.

How I Know Chords

16 views 1 this week
no commentswrite comment
1 2 3 4 5
3 more votes to show rating
add to favorites
launch autoscroll
font size
0
reset
transpose
0
reset
simplify chords
display chords
guitar tuner
Autoscroll
slow
fast
+/-
esc
set tempo
stop
Help us to improve Ultimate-Guitar.com Take our survey!
×
Author
Difficulty
intermediate
Strumming
End of Bridge [D#m to Fm] 75 bpm
1
 
&
 
2
 
&
 
Play
Is this strumming pattern correct? Yes No
----------------------------------------------------------------------------
                        How I Know - Toro y Moi
----------------------------------------------------------------------------

Chords you need:

   C#    B     G#   D#m    Fm    A#m    F#   D#m7  A#m7
e|-9-----7-----4-----6-----8------6-----2-----6-----1-------|
B|-9-----7-----4-----7-----9------6-----2-----7-----2-------|
G|-10----8-----5-----8-----10-----6-----3-----6-----1-------|
D|-11----9-----6-----8-----10-----8-----4-----8-----3-------|
A|-11----9-----6-----6-----8------8-----4-----6-----1-------|
E|-9-----7-----4------------------6-----2-------------------|


Guitar starts at 0:53


[Bridge]

C#                 B
You'll see me when I go back
  G#               D#m  Fm  D#m  Fm
I know it won't be hard

[Instrumental]

C#  C#  B  G#  D#m  C#  B  G#  D#m

[Chorus]

A#m     G#       F#
  Can't tell you how I know
C#        B       A#m
  This is where I want you to
G#             F#          D#m7
Take me when I die and I'm full of sleep
B                        D#m7
Underneath the pine on a bed of leaves

[Chorus 2]

A#m  G#     F#
 Sorry if I pass you by
C#       B     A#m
 I never saw into your eyes
G#         F#       D#m7
I was only thinking of my home
B                  D#m7   D#m7
 And how it's so far


[Little bridge riff]
e|-------------------------------------------|
B|-------------------------------------------|
G|---11---10---8---6---6--8--10--------------|
D|-------------------------------9-----8-----|
A|-------------------------------------------|
E|-------------------------------------------|


[Chorus]

A#m     G#       F#
  Can't tell you how I know
C#        B       A#m
  This is where I want you to
G#             F#          D#m7
Take me when I die and I'm full of sleep
B                        D#m7
Underneath the pine on a bed of leaves

[Chorus 2]

A#m  G#     F#
 Sorry if I pass you by
C#       B     A#m
 I never saw into your eyes
G#         F#       D#m7
I was only thinking of my home
B                  D#m7   B   D#m7
 And how it's so far


[Outro]

A#m  G#   F#

C#   B    A#m

G#   F#   D#m7

B         D#m7 x4  A#m7  D#m7


The strumming patterns in the outro can be heard clearly and are the same for all the 
chorus parts.
Suggest correction
Give kudos to tab author, rate the tab!
1 2 3 4 5
comments
print report bad tab
guest
You may want to rate the tab now too:
select rating
Wanna post a correction for this tab? Suggest correction