Oops, an error
Loading. Please wait.

Omaha bass

124 views 48 this week
no commentswrite comment
1 2 3 4 5
x 4
add to favorites
×
Save as Personal and add changes to this tab that will be seen only by you. Learn more ›
×
You can save this tab as Personal to edit and correct it or add notes. All changes will be seen only by you. Learn more »
launch autoscroll
font size
0
reset
guitar tuner
edit
Autoscroll
slow
fast
+/-
esc
set tempo
stop
About this tab version
This tab is based off the studio recorded version of the song. However, Chaz might not play it in this particular way. Was this info helpful? Yes No
[Intro]

G|------------------------------------------|
D|------------------------------------------|
A|------------------------8-----------------|
E|---6----------------------6---------------|


[First Verse]

G|-----------------------------------------------------| x3
D|----------------------------------8------------------|
A|--6------6--6----/10--8-----8--10------10---8---10---|
E|-------6---------------------------------------------|

G|----------------------------------------------------| 
D|----------------------------------8-----------------|
A|--6------6--6----/10--8-----8--10-----10---8--------|
E|-------6---------------------------------------11---|

[First Chorus]

G|----------------------------------------------------------------|
D|----------------------------8---10---/12---10-------------------|
A|--------10---8-------8--10--------------------------------------|
E|--8---------------------------------------------11-----11--10---|

G|----------------------------------------------------|
D|----------------------------8---10---/12---10---8---|
A|--------10---8-------8--10--------------------------|
E|--8-------------------------------------------------|

G|----------------------------------------------------------------|
D|----------------------------8---10---/12---10-------------------|
A|--------10---8-------8--10--------------------------------------|
E|--8---------------------------------------------11-----11--10---|

G|----------------------------------------------------|
D|----------------------------8---10---/12---10-------|
A|--------10---8-------8--10--------------------------|
E|--8-------------------------------------------------|

Let the last note ring. Then follows silence. 

[Second Verse] from 1:06

G|--------------------------------------------------------| 
D|-------------------------------------8------------------|
A|-13\6------6--6-----/10--8------8-10------10---8---10---|
E|-------6------------------------------------------------|

G|--------------------------------------------------------| 
D|--------------------------------------8-----------------|
A|--6-------6--6-----/10--8------8--10------10---8---10---|
E|--------6-----------------------------------------------|

[Second Chorus]

G|--------------------------------------------------------------|
D|----------------------------8---10---/12---10---8-----8--10---|
A|--------10---8-------8--10------------------------------------|
E|--8-----------------------------------------------------------|

G|--------------------------------------------------------------|
D|----------------------------8---10---/12---10---8-----8--10---|
A|--------10---8-------8--10------------------------------------|
E|--8-----------------------------------------------------------|

G|--------------------------------------------------------------|
D|----------------------------8---10---/12---10---8-----8-------|
A|--------10---8-------8--10-------------------------------10---|
E|--8-----------------------------------------------------------|

G|----------------------------------------------------|
D|----------------------------8---10---/12---10---8---|
A|--------10---8-------8--10--------------------------|
E|--8-------------------------------------------------|

[Break]

G|---------------------------------------------------------------------------------------|
D|-----------------------------------------8--------------8------------------------------|
A|----------------------------------8--10-----10---------------------10------------------|
E|--11-------10-------8-------6---------------------11--------10----------8----6--8--8---|


G|-----------------------------------------------------------|
D|--------------------------------------8--10--12--/17--13---|
A|--8----8----8-8-8-8-8-8----8--10--12-----------------------|
E|-----------------------------------------------------------|

[Final Chorus + Outro]

G|-----------------------------------------------------| x4
D|----------------------------------8------------------|
A|--6------6--6----/10--8-----8--10------10---8---10---|
E|-------6---------------------------------------------|

The fifth and sixth time he plays a slight variation in the beginning:

G|--------------------------------------------------------| x2
D|--------------------------------------8-----------------|
A|--6---6-----6--6-----/10--8-----8-10------10---8---10---|
E|---------6----------------------------------------------|

... and then goes back to the normal verse pattern for the last two bars, with a little twist in the end
of the second one:

G|-----------------------------------------------------|
D|----------------------------------8------------------|
A|--6------6--6----/10--8-----8--10------10---8---10---|
E|-------6---------------------------------------------|

G|---------------------------------------------------------------------------------|
D|----------------------------------8-----------------8----------------------------|
A|--6------6--6----/10--8-----8--10------10---8---10-------------------------------|
E|-------6---------------------------------------------------------------------6---|

Let the last two notes ring. 


************************************

| /   Slide up
| \   Slide down

************************************

            
            
Suggest correction
Creating personal tab
Creating personal tab
You can edit any tab online and save it as your Personal.

You can edit, replace or remove any tab part or add personal notes – all changes will be seen only by you.

Personal tabs can be accessed anytime from any device, even offline.
Learn more »
comments
print report bad tab
guest
You may want to rate the tab now too:
select rating
Wanna post a correction for this tab? Suggest correction