Oops, an error
Loading. Please wait.

El Vuelo Del Pegaso Tab

45 views 1 this week
no commentswrite comment
1 2 3 4 5
3 more votes to show rating
add to favorites
launch autoscroll
font size
0
reset
how to read this tab
guitar tuner
Autoscroll
slow
fast
+/-
esc
set tempo
stop
Help us to improve Ultimate-Guitar.com Take our survey!
×
todo los acordes son 5tas.. ok?

Intro
C#     G#     A# F#
C#     G#     B

E -----------------------------------------------------------
B -----------------------------------------------------------
G -----10-11----11s13~~------11-10----------10-11---11s13~~--
D -11------------------------------------11-11---------------
A -----------------------------------------------------------
E -----------------------------------------------------------
              X2
E -------------------------------------------------------
B -------------------------------------------------------
G -----10-11----11s13~~------11-10----------11~---11b----
D -11------------------------------------11--------------
A -------------------------------------------------------
E -------------------------------------------------------

A#                                 F#                             G#    A#
Mas allá del horizonte en las aguas del dolor
A#                                 F#                             G#    A#
Con el oro y la conciencia halaremos la visión
A#                                 F#                             G#    A#
Iluminadas tierras de Arda llegaran
A#                                 F#                             G#
Donde elfos y los bardos están listos para cantar.
F#             G#                             A#      A# G# F#
Melodías de futuro y libertad
F#             G#                             A#      A# G# F#
Sin olvidarnos del ayer
F#             G#                  C#      A#
Con el secreto que nos dieron al hablar
F#                G#
La magia estará...

CORO
C#                    G#     A#            F#
El vuelo del pegazo jamás terminará
C#              G#           B
Destellos de gloria llegarán
C#                    G#     A#            F#
Hallando una salida en toda la oscuridad
C#              G#           B
Pegazo... vuela al mas allá...
INTERMEDIO
A#     F#       G#    A#
A#     F#       G#


A#                                 F#                             G#    A#
Cabalgaremos juntos camino hacia la hermandad
A#                                 F#                             G#    A#
Destrozando a aquellos que nos quieren acabar
A#                                 F#                             G#    A#
Inquisición constante, callarnos nunca lograrán
A#                                 F#                             G#
La venganza es dulce, se lo vamos a demostrar.
F#             G#                             A#      A# G# F#
Luchemos juntos por un mañana mejor
F#             G#         A#      A# G# F
Unidos no nos vencerán
F#             G#                  C#      A#
Usando siempre como escudo y arma la verdad
F#                G#
Sin descansar

CORO

SOLO

CORO

INTRO


Bueno esto es todo lo que pude transcribir, espero que les sirva
Y que viva el talento venezolano, arriba torre :D
 Att: Edwin V.
Alguna duda edwin92v@
Suggest correction
Give kudos to tab author, rate the tab!
1 2 3 4 5
comments
print report bad tab
guest
You may want to rate the tab now too:
select rating
Wanna post a correction for this tab? Suggest correction