Oops, an error
Loading. Please wait.

Come To Terms Tab

1,013 views 3 this week
2 commentsread comments
1 2 3 4 5
excellent!
x 3
add to favorites
launch autoscroll
font size
0
reset
how to read this tab
guitar tuner
Tab Pro tools
  • play this tab
  • loop segment
  • change instrument
  • show fretboard
  • metronome
×
Best way to learn
"Come To Terms"
Autoscroll
slow
fast
+/-
esc
set tempo
stop
Contributor
Artist website: http://torrestorrestorres.com/

=============================================================================
                             Come to Terms - Torres
=============================================================================
Tabbed by: Mika T. 

Tuning: EADGBe (Standard tuning)

Some notes:
- This tab is based on a live version of the song. 
- I did not count exactly how many times she alternates between open E and A 
  strings at various points of the song. 
  I think it's not a big deal, but feel free to listen to the recording 
  to get them spot on.
- I did not tab the actual rhythm for choruses, but I think I got the chords,
  so hope you can figure something out.
- The lyrics that are piled on top of each other are to be sung during the
  particular bar under which they have been written. Sorry if it's confusing.
- I had some issues with the bridge, but it seems it's mostly chords that 
  she has already used earlier in the song. 
- Finally, this is my first attempt at tabbing, so go easy on me. I just
  figured that such a great song deserves a tab. I'd really appreciate if 
  someone took it from here and created a more comprehensive tab. Enjoy!


INTRO
e|----------------|----------------|----------------|----------------|
B|----------------|----------------|----------------|----------------|
G|----------------|----------------|--------------4-|--2---0---2---0-|
D|----------------|----------------|------4---0-----|----------------|
A|--0---0---0---0-|--0---0---0---5-|--0-------------|----------------|
E|0---0---0---0---|0---0---0---0---|0---0---0---0---|0---0---0---0---|


e|----------------|----------------|----------------|----------------|
B|----------------|----------------|----------------|----------------|
G|----------------|----------------|----------------|--------------4-|
D|--4---4---5---4-|--0-------------|----------------|------4---0-----|
A|----------------|------4---5---4-|--0---0---0---5-|--0-------------|
E|0---0---0---0---|0---0---0---0---|0---0---0---0---|0---0---0---0---|

e|----------------|----------------|----------------|----------------|
B|----------------|----------------|----------------|----------------|
G|--2---0---2---0-|----------------|----------------|----------------|
D|----------------|--4---4---5---4-|--0-------------|----------------|
A|----------------|----------------|------4---5---4-|--0---0---0---0-|
E|0---0---0---0---|0---0---0---0---|0---0---0---0---|0---0---0---0---|



VERSE 1
e|----------------|----------------|----------------|----------------|
B|----------------|----------------|----------------|----------------|
G|----------------|----------------|--4---2---0-----|----------------|
D|----------------|----------4---0-|--------------4-|--5---4---0-----|
A|--0---0---0---0-|--5---0---------|----------------|--------------4-|
E|0---0---0---0---|0---0---0---0---|0---0---0---0---|0---0---0---0---|
                 These lives are so  contrived and out of focus

e|----------------|----------------|----------------|----------------|
B|----------------|----------------|----------------|----------------|
G|----------------|--------------4-|--2---0---------|----------------|
D|----------------|------4---0-----|----------4---5-|--4---0---------|
A|--5---4---0---5-|--0-------------|----------------|----------4---5-|
E|0---0---0---0---|0---0---0---0---|0---0---0---0---|0---0---0---0---|
          But if   I can derive some  happiness from this

e|----------0-0-5-|-5/7--7-7-------|----------------|
B|----------0-0-5-|-5-7--7-7-------|----------------|
G|----------7-7-7-|-7-7--7-7-------|----------------|
D|----------7-7-7-|-7-7--7-7-------|----------------|
A|--4---0---0-0-5-|-5-7--7-7-----0-|--0---0---0-----|
E|0---0-----0-0-5-|-5-7--7-7---0---|0---0---0-------|
          Then I'll  made it 
               have   out alive


CHORUS 1
e|5-------5-------|0-------0-------|5---------------|----------------|
B|5-------5-------|10------10------|5---------------|----------------|
G|7-------7-------|9-------9-------|7---------------|----------------|
D|7-------7-------|0-------0-------|7---------------|--4---5---4---0-|
A|5-------5-------|0-------0-------|5---------------|----------------|
E|5-------5-------|9-------7-------|5---------------|0---0---0---0---|
  Cos people always chaaaaa-aaaaaaaa-aaaange    But ain't always changing

e|----------------|--------5-------|5-------0-------|0-------5-------|
B|----------------|--------5-------|5-------10------|10------5-------|
G|----------------|--------7-------|7-------9-------|9-------7-------|
D|----------------|--------7-------|7-------0-------|0-------7-------|
A|--4---5---4---0-|--0---0-5-------|5-------0-------|0-------5-------|
E|0---0---0---0---|0---0---5-------|5-------9-------|7-------5-------|
  For the better           And just because will both        in time
                           the two of us    grow old

e|----------------|----------------|----------------|5-------5-------|
B|----------------|----------------|----------------|5-------5-------|
G|----------------|----------------|----------------|7-------7-------|
D|----------4---5-|--4---0---------|----------------|7-------7-------|
A|----------------|----------4---5-|--4---0---0---0-|5-------5-------|
E|--------0---0---|0---0---0---0---|0---0---0---0---|5-------5-------|
          Don't mean       old together              So I'll be sure
          we should grow                             to turn my back
                                                            on every-

e|0-------0-------|5---------------|----------------|----------------|
B|10------10------|5---------------|----------------|----------------|
G|9-------9-------|7---------------|----------------|----------------|
D|0-------0-------|7---------------|----------------|----------------|
A|0-------0-------|5---------------|----------------|----------------|
E|9-------7-------|5---------------|222222225-------|----------------|
  -thing  you      you'd do         I'm gonna        Before I
          said                      come to          have to
                                    terms


INTRO 2
e|----------------|----------------|----------------|----------------|
B|----------------|----------------|----------------|----------------|
G|----------------|------4---2---0-|--2---0---------|----------------|
D|--------------4-|--0-------------|----------4---4-|--5---4---0-----|
A|--0---5---0-----|----------------|----------------|--------------4-|
E|0---0---0---0---|0---0---0---0---|0---0---0---0---|0---0---0---0---|
 
e|----------------|----------------|----------------|----------------|
B|----------------|----------------|----------------|----------------|
G|----------------|----------------|--4---2---0---2-|--0-------------|
D|----------------|----------4---0-|----------------|------4---4---5-|
A|--5---4---0---0-|--5---0---------|----------------|----------------|
E|0---0---0---0---|0---0---0---0---|0---0---0---0---|0---0---0---0---|

e|----------------|----------------|
B|----------------|----------------|
G|----------------|----------------|
D|--4---0---------|----------------|
A|----------4---5-|--4---0---0---0-|
E|0---0---0---0---|0---0---0---0---|



VERSE 2 
e|----------------|----------------|----------------|----------------|
B|----------------|----------------|----------------|----------------|
G|----------------|--4---2---0-----|----------------|----------------|
D|----------4---0-|--------------4-|--5---4---0-----|----------------|
A|--5---0---------|----------------|--------------4-|--5---4---0---5-|
E|0---0---0---0---|0---0---0---0---|0---0---0---0---|0---0---0---0---|
  Been keeping   time in my  back pocket                        Taking
          all my

e|----------------|----------------|----------------|----------0-0-7-|
B|----------------|----------------|----------------|----------0-0-7-|
G|--------------4-|--2---0---------|----------------|----------7-7-5-|
D|------4---0-----|----------4---5-|--4---0---------|----------7-7-5-|
A|--0-------------|----------------|----------4---5-|--4---0---0-0-7-|
E|0---0---0---0---|0---0---0---0---|0---0---0---0---|0---0-----0-0-7-|
   from it       only what I need to         be                whoever
                                                                  I'm

e|-7/7--7-7-------|----------------|
B|-7-7--7-7-------|----------------|
G|-5-7--7-7-------|----------------|
D|-5-7--7-7-------|----------------|
A|-7-7--7-7-----0-|--0---0---0-----|
E|-7-7--7-7---0---|0---0---0-------|
  supposed
      to be


VERSE 3
e|----------------|----------------|----------------|----------------|
B|----------------|----------------|----------------|----------------|
G|----------------|--4---2---0-----|----------------|----------------|
D|----------4---0-|--------------4-|--5---4---0-----|----------------|
A|--5---0---------|----------------|--------------4-|--5---4---0---5-|
E|0---0---0---0---|0---0---0---0---|0---0---0---0---|0---0---0---0---|
  But when I look at you I get so lonely                         I

e|----------------|----------------|----------------|----------------|
B|----------------|----------------|----------------|----------------|
G|--------------4-|--2---0---------|----------------|----------------|
D|------4---0-----|----------4---5-|--4---0---------|----------------|
A|--0-------------|----------------|----------4---5-|--4---0---0---0-|
E|0---0---0---0---|0---0---0---0---|0---0---0---0---|0---0---0---0---|
  used to just adore you   but now you       bore me



CHORUS 2
e|5-------5-------|0-------0-------|5---------------|----------------|
B|5-------5-------|10------10------|5---------------|----------------|
G|7-------7-------|9-------9-------|7---------------|----------------|
D|7-------7-------|0-------0-------|7---------------|--4---5---4---0-|
A|5-------5-------|0-------0-------|5---------------|----------------|
E|5-------5-------|9-------7-------|5---------------|0---0---0---0---|
  Cos people always chaaaaa-aaaaaaaa-aaaange    But ain't always changing

e|----------------|--------5-------|5-------0-------|0-------5-------|
B|----------------|--------5-------|5-------10------|10------5-------|
G|----------------|--------7-------|7-------9-------|9-------7-------|
D|----------------|--------7-------|7-------0-------|0-------7-------|
A|--4---5---4---0-|--0---0-5-------|5-------0-------|0-------5-------|
E|0---0---0---0---|0---0---5-------|5-------9-------|7-------5-------|
  For the better           And just because will both        in time
                           the two of us    grow old

e|----------------|----------------|----------------|5-------5-------|
B|----------------|----------------|----------------|5-------5-------|
G|----------------|----------------|----------------|7-------7-------|
D|----------4---5-|--4---0---------|----------------|7-------7-------|
A|----------------|----------4---5-|--4---0---0---0-|5-------5-------|
E|--------0---0---|0---0---0---0---|0---0---0---0---|5-------5-------|
          Don't mean       old together              So I'll be sure
          we should grow                             to turn my back
                                                            on every-

e|0-------0-------|5---------------|----------------|----------------|
B|10------10------|5---------------|----------------|----------------|
G|9-------9-------|7---------------|----------------|----------------|
D|0-------0-------|7---------------|----------------|----------------|
A|0-------0-------|5---------------|----------------|----------------|
E|9-------7-------|5---------------|222222225555-5--|----------------|
  -thing  you      you'd do         I'm gonna        Before I
          said                      come to          have to
                                    terms

INTRO 3
e|----------------|----------------|----------------|----------------|
B|----------------|----------------|----------------|----------------|
G|----------------|------4---2---0-|--2---0---------|----------------|
D|--------------4-|--0-------------|----------4---4-|--5---4---0-----|
A|--0---5---0-----|----------------|----------------|--------------4-|
E|0---0---0---0---|0---0---0---0---|0---0---0---0---|0---0---0---0---|
 
e|----------------|----------------|----------------|----------------|
B|----------------|----------------|----------------|----------------|
G|----------------|----------------|--4---2---0---2-|--0-------------|
D|----------------|----------4---0-|----------------|------4---4---5-|
A|--5---4---0---0-|--5---0---------|----------------|----------------|
E|0---0---0---0---|0---0---0---0---|0---0---0---0---|0---0---0---0---|

e|----------------|----------------|----------------|
B|----------------|----------------|----------------|
G|----------------|----------------|----------------|
D|--4---0---------|----------------|----------------|
A|----------4---5-|--4---0---0---0-|--0---0---0---0-|
E|0---0---0---0---|0---0---0---0---|0---0---0---0---|



BRIDGE
(Not sure what she plays here, but it's along the lines of chords heard before)
e|----------------|----------------|----------------|----------------|
B|----------------|----------------|----------------|----------------|
G|----------------|----------------|----------------|----------------|
D|----------------|----------------|----------------|----------------|
A|----------------|----------------|----------------|----------------|
E|----------------|----------------|----------------|----------------|
  And I’ll never   know             If looking out the window 

e|0-5-------------|x-------0-------|?---------------|5---------------|
B|0-5-------------|x-------10------|----------------|5---------------|
G|7-7-------------|x-------9-------|----------------|7---------------|
D|7-7-------------|x-------0-------|----------------|7---------------|
A|0-5-------------|7-------0-------|----------------|5---------------|
E|0-5-------------|7-------9-------|----------------|5---------------|
  Is what brings me to my knees    Or if it’s what’s   Killing me
                                        inside that’s 
                                                             
e|----------------|
B|----------------|
G|----------------|
D|----------------|
A|----------------|
E|----------------|
  That's killing me



INTRO 4
e|----------------|----------------|----------------|----------------|
B|----------------|----------------|----------------|----------------|
G|----------------|------4---2---0-|--2---0---------|----------------|
D|--------------4-|--0-------------|----------4---4-|--5---4---0-----|
A|--0---5---0-----|----------------|----------------|--------------4-|
E|0---0---0---0---|0---0---0---0---|0---0---0---0---|0---0---0---0---|
 
e|----------------|----------------|----------------|----------------|
B|----------------|----------------|----------------|----------------|
G|----------------|----------------|--4---2---0---2-|--0-------------|
D|----------------|----------4---0-|----------------|------4---4---5-|
A|--5---4---0---0-|--5---0---------|----------------|----------------|
E|0---0---0---0---|0---0---0---0---|0---0---0---0---|0---0---0---0---|

e|----------------|----------------|----------------|
B|----------------|----------------|----------------|
G|----------------|----------------|----------------|
D|--4---0---------|----------------|----------------|
A|----------4---5-|--4---0---0---0-|--0---0---0---0-|
E|0---0---0---0---|0---0---0---0---|0---0---0---0---|



CHORUS 3
e|5-------5-------|0-------0-------|5---------------|----------------|
B|5-------5-------|10------10------|5---------------|----------------|
G|7-------7-------|9-------9-------|7---------------|----------------|
D|7-------7-------|0-------0-------|7---------------|--4---5---4---0-|
A|5-------5-------|0-------0-------|5---------------|----------------|
E|5-------5-------|9-------7-------|5---------------|0---0---0---0---|
  Cos people always chaaaaa-aaaaaaaa-aaaange    But ain't always changing

e|----------------|--------5-------|5-------0-------|0-------5-------|
B|----------------|--------5-------|5-------10------|10------5-------|
G|----------------|--------7-------|7-------9-------|9-------7-------|
D|----------------|--------7-------|7-------0-------|0-------7-------|
A|--4---5---4---0-|--0---0-5-------|5-------0-------|0-------5-------|
E|0---0---0---0---|0---0---5-------|5-------9-------|7-------5-------|
  For the better           And just because will both        in time
                           the two of us    grow old

e|----------------|----------------|----------------|5-------5-------|
B|----------------|----------------|----------------|5-------5-------|
G|----------------|----------------|----------------|7-------7-------|
D|----------4---5-|--4---0---------|----------------|7-------7-------|
A|----------------|----------4---5-|--4---0---0---0-|5-------5-------|
E|--------0---0---|0---0---0---0---|0---0---0---0---|5-------5-------|
          Don't mean       old together              So I'll be sure
          we should grow                             to turn my back
                                                            on every-

e|0-------0-------|5---------------|----------------|----------------|
B|10------10------|5---------------|----------------|----------------|
G|9-------9-------|7---------------|----------------|----------------|
D|0-------0-------|7---------------|----------------|----------------|
A|0-------0-------|5---------------|----------------|----------------|
E|9-------7-------|5---------------|2-22-22-5-55-55-|2-22-22-5-------|
  -thing  you      you'd do         I'm gonna        I'm goooonna
          said                      come to          come to terms
                                    terms

e|----------------|
B|----------------|
G|----------------|
D|----------------|
A|----------------|
E|----------------|
  Before I have to



OUTRO (INTRO 5)
e|----------------|----------------|----------------|----------------|
B|----------------|----------------|----------------|----------------|
G|----------------|------4---2---0-|--2---0---------|----------------|
D|--------------4-|--0-------------|----------4---4-|--5---4---0-----|
A|--0---5---0-----|----------------|----------------|--------------4-|
E|0---0---0---0---|0---0---0---0---|0---0---0---0---|0---0---0---0---|
 
e|----------------|----------------|----------------|----------------|
B|----------------|----------------|----------------|----------------|
G|----------------|----------------|--4---2---0---2-|--0-------------|
D|----------------|----------4---0-|----------------|------4---4---5-|
A|--5---4---0---0-|--5---0---------|----------------|----------------|
E|0---0---0---0---|0---0---0---0---|0---0---0---0---|0---0---0---0---|

e|----------------|----------------|
B|----------------|----------------|
G|----------------|----------------|
D|--4---0---------|----------------|
A|----------4---5-|--4---0---------|
E|0---0---0---0---|0---0-----------|
    (slow down the tempo towards the last notes; let the last note ring)

************************************

| /   slide up
| \   slide down
| h   hammer-on
| p   pull-off
| ~   vibrato
| +   harmonic
| x   Mute note
| b   Bend
| pb  Pre-bend
| br  Bend release
| pbr Pre-bend release
| brb Bend release bend

************************************

P.S Thank you Mackenzie Scott for creating such a wonderful song. 
comments
We did not receive enough feedback on this tab! Please rate:
print report bad tab
1 2 3 4 5
2 comments total.
0 reply
Dankovics wrote on April 19 2013, 03:00 am

Thank you, good work!
Can you tab Mother Earth, Father God?

+2 reply
wongsteven51 wrote on May 7 2013, 07:56 pm

Pretty good tab but this song is in Drop D not standard tuning. Just try it and listen to the song.

I want to post or [tab]
guest
You may want to rate the tab now too:
select rating
Please do not post tabs as comments. Select "correction" instead!