Oops, an error
Loading. Please wait.

Gamera Tab

version 1
version 1

Whole song

2,786 views 3 this week
no commentswrite comment
1 2 3 4 5
1 last vote to show rating
add to favorites
launch autoscroll
font size
0
reset
how to read this tab
guitar tuner
Autoscroll
slow
fast
+/-
esc
set tempo
stop
Help us to improve Ultimate-Guitar.com Take our survey!
×
Song: Gamera
Artist: Tortoise
Album: Millions Now Living Will Never Die

Tabbed by bpwn3r
Email: bpwn3r@hotmail.com

Standard Tuning: E A D G B e

| / Slide up
|  Slide down
| h Hammer-on
| p Pull-off
| ~ Vibrato

===============
    Riff 1
===============

e:-------------5---7p5-5---5-----------------5-----------|
B:-------7---------------5---------7-----5-----5-5-7--7--|
G:-----4-------------------------4-----------------------|
D:-4h7-----0-----------------4h7-----0-------------------|
A:-------------------------------------------------------|
E:-------------------------------------------------------|

e:-------------5---7p5-5---5-----------------5-----------|
B:-------7---------------5---------7-----5-----5-5-7--7--|
G:-----4-------------------------4-----------------------|
D:-4h7-----0-----------------4h7-----0-------------------|
A:-------------------------------------------------------|
E:-------------------------------------------------------|

e:-------------------------------------------------------|
B:-7p5-5-----------------------7p5-5---------------------|
G:-------4--7----4p0-0---------------4--7----4p0-0-------|
D:---------------------7--7------------------------7--7--|
A:-------------------------------------------------------|
E:-------------------------------------------------------|

e:-------------5---7p5-5---5-----------------5-----------|
B:-------7---------------5---------7-----5-----5-5-7--7--|
G:-----4-------------------------4-----------------------|
D:-4h7-----0-----------------4h7-----0-------------------|
A:-------------------------------------------------------|
E:-------------------------------------------------------|

e:-------------5---7p5-5---5-----------------5-----------|
B:-------7---------------5---------7-----5-----5-5-7--7--|
G:-----4-------------------------4-----------------------|
D:-4h7-----0-----------------4h7-----0-------------------|
A:-------------------------------------------------------|
E:-------------------------------------------------------|

e:-------------------------------------------------------|
B:-7p5-5-----------------------7p5-5---------------------|
G:-------4--7----4p0-0---------------4--7----4p0-0-------|
D:---------------------7--7------------------------7-----|
A:-------------------------------------------------------|
E:-------------------------------------------------------|

e:-----------5---7p5-5-10-12--------------------|
B:---------7------------------------4/7---7---7-|
G:------------------------------7p5-----0---0---|
D:-0-7/9-5--------------------------------------|
A:----------------------------------------------|
E:----------------------------------------------|

===============
    Riff 2
===============

e:----------------------------------|  This part isn't exact,
B:---7---7---7---7---7---7---7---7--|  but they fiddle around
G:-0---0---0---0---0---0---0---0----|  those two notes before
D:----------------------------------|  repeating the first riff
A:----------------------------------|  with more instruments.
E:----------------------------------|

===============
    Riff 3
===============

e:---------------------------------------------------| This part is doesn't
B:---------------------------------------------------| ring out very loud,
G:---------------------------------------------------| but it is like a subtle
D:-0-0-0-0-0-0-0-0-0-0-0-0-0-0-0-0-------------------| speedpicking. (Goes
A:--------------------------------- until about 4:30-| in the
E:---------------------------------------------------| actual song).

===============
    Riff 4
===============

e:--------10~~~~--- They play this part until about 6:30--|
B:---10~~~------------------------------------------------| and the rest of the song is just
G:--------------------------------------------------------| feedback and random notes ringing out.
D:--------------------------------------------------------| Just jam around and have fun with it.
A:--------------------------------------------------------|
E:--------------------------------------------------------|

Song order:
 Riff 1
 Riff 2
 Riff 1
 Riff 3
 Riff 4
 Feedback/whatever
Suggest correction
Give kudos to tab author, rate the tab!
1 2 3 4 5
comments
print report bad tab
guest
You may want to rate the tab now too:
select rating
Wanna post a correction for this tab? Suggest correction