Oops, an error
Loading. Please wait.

Glass Museum Tab

4,071 views 12 this week
3 commentsread comments
1 2 3 4 5
accurate
x 6
add to favorites
launch autoscroll
font size
0
reset
how to read this tab
guitar tuner
Autoscroll
slow
fast
+/-
esc
set tempo
stop
Help us to improve Ultimate-Guitar.com Take our survey!
×
Tortoise- "Glass Museum"


E:||-----------(2)-----------------| 
B:||------0---0-2------------------|
G:||----2---2---2----2-------------|
D:||--4---------4------4-----4-----|
A:||2-----------5--------5-----5-0-|
E:||-------------------------------|  Repeat this a few times.

Then it goes like this a couple of times:

E:||----------------------------|
B:||----2-----------------------|
G:||------2---------------------|
D:||--4-----4-------------4-----|
A:||2---------2-4-5-4-------5-0-|
E:||----------------------------|

Listen to the disc to learn when to play each part.



Tabbed by: Greg Speight
Suggest correction
comments
print report bad tab
3 comments total.
0 reply
evanthetexan 31 wrote on March 26 2010, 01:02 am

only gave 4 stars because the tab is incomplete. what's there is perfect...

+1 reply
dbraindog 41 wrote on August 15 2010, 02:12 pm

These parts come in around 3.33
After the chuggy guitar part (which is an F# power chord I think)
Glockenspiel parts alternate a few different times throughout.

Glockenspiel part 1


e|---------------|----------|-------------------||
b|---------------|----------|-------------2--3--||
g|--6-------2-4--|-----2-4--|--------2-4--------||
d|--4----4-------|--4-------|--4--4-------------||
a|---------------|----------|-------------------||
e|---------------|----------|-------------------||

f# f# A B F# A B F# F# A B C# D5

Glockenspiel part 2 Ending

e||--------------|--------------||----------------||
b||--2-----2--5--|----------2-3-||--3--3-3-3-(2)--||
g||-----2--------|------2-4-----||----------------||
d||--------------|--4-4---------||----------------||
a||--------------|--------------||----------------||
e||--------------|--------------||----------------||


Guitar part played under each riff

e|--------------|--------------|---------------|-------||
b|--------------|--------------|---------------|-------||
g|--------------|--------------|---------------|-------||
d|--------------|--------------|---------------|-------||
a|--9-----------|--9-----------|--9------------|--9-9--||
e|----9-9-10-12-|----9-9-10-12-|----9-9-10-12--|-------||

0 reply
bennyshambles78 4,124 wrote on January 15 2013, 06:39 am

Yes, this is incomplete and you can simplify the Dsus2 chord to make it easier to play, plus it sounds better. There's also the first fade-out break that just sustains a jazzy partial G chord and messes around a bit in key and low in volume before coming back in with the main theme. It's cool to see this riff up on UltimateGuitar.com though, for sure.

guest
You may want to rate the tab now too:
select rating
Please do not post tabs as comments. Select "correction" instead!