Oops, an error
Loading. Please wait.

Spiderwebbed Bass Tab

623 views 3 this week
2 commentsread comments
1 2 3 4 5
x 3
add to favorites
launch autoscroll
font size
0
reset
guitar tuner
×
Best way to learn
"Spiderwebbed"
Autoscroll
slow
fast
+/-
esc
set tempo
stop
Difficulty
intermediate
Spiderwebbed by Tortoise from the self-titled album Tortoise.

       harm.
G-------12---4---------4---|
D-2------------2-2h4h5---0-|
A--------------------------|
E---0-0----0---------------|

       harm.
G-------12---4---------4---|
D-2------------2-2h4h5---0-|
A--------------------------|
E---0-0----0---------------|

       harm.
G-------12---4---------4---|
D-2------------2-2h4h5---0-|
A--------------------------|
E---0-0----0---------------|
Suggest correction
Give kudos to tab author, rate the tab!
1 2 3 4 5
comments
print report bad tab
2 comments total.
0 reply
fin ramage 10 Oct 13, 2013 02:25 PM

harm.
G-------12---4---------4---|
D-2--------0---2-0h4h5---0-|
A--------------------------|
E---0-0--------------------|

0 reply
just_here16 10 Oct 18, 2014 10:53 AM

G-----12---4---------4--------|
D--------0---4--0h4h5---------|
A----------------------5---7--|
E-0-0-------------------------|

guest
You may want to rate the tab now too:
select rating
Wanna post a correction for this tab? Suggest correction