Oops, an error
Loading. Please wait.

Tnt Tab

version 1
version 1

Whole song

2,680 views 3 this week
no commentswrite comment
1 2 3 4 5
x 4
add to favorites
launch autoscroll
font size
0
reset
how to read this tab
guitar tuner
Autoscroll
slow
fast
+/-
esc
set tempo
stop
Help us to improve Ultimate-Guitar.com Take our survey!
×
Author
-------------------------------------------------------------------------------
			       TNT - Tortoise
-------------------------------------------------------------------------------
Tabbed by: Ben Aitken
Email: ben.j.aitken@gmail.com

Tuning: Standard

G1 0:34 (main riff)
e|---------------------------------------------------------------------------|
B|---------------------------------------------------------------------------|
G|--------2----------------2-------------------------------------------------|
D|--0--2-----4----0--2--0------4---------------2--4--------------------------|
A|----------------------------------5--2----0*-------------------------------|
E|---------------------------------------------------------------------------|
					    *let ring
G2 0:48
e|---------------------------------------------------------------------------|
B|---------------------------------------------------------------------------|
G|---------------------------------------------------------------------------|
D|---------------------------------------------------------------------------|
A|--0*-----------------------------------------------------------------------|
E|---------------------------------------------------------------------------|
    *w/ feedback

G1 Main riff at 0:54

G2 1:07 (continue playing throughout)
e|---------------------------------------------------------------------------|
B|---------------------------------------------------------------------------|
G|----------7--7--7-----7--7--7-----7--7--7-------7--7--7--------------------|
D|---------------------------------------------------------------------------|
A|--0*-----------------------------------------------------------------------|
E|---------------------------------------------------------------------------|

G1 Main riff 4x at 1:26

G3 (Play occasionally) 1:52
e|---------------------------------------------------------------------------|
B|---------------------------------------------------------------------------|
G|--2------------------------------------------------------------------------|
D|--4------------------------------------------------------------------------|
A|--5------------------------------------------------------------------------|
E|---------------------------------------------------------------------------|

G4 1:55
e|---------------------------------------------------------------------------|
B|---------------------------------------------------------------------------|
G|--------2----------------4-------------------------------------------------|
D|--0--3-----3--3----0--3-----4--4-------------------------------------------|
A|---------------------------------------------------------------------------|
E|---------------------------------------------------------------------------|

G1 Main riff at 2:00, 2:17

G4 2:13
e|---------------------------------------------------------------------------|
B|---------------------------------------------------------------------------|
G|--------2----------------2----------------4----------------2---------------|
D|--0--3-----3--3----0--3-----4--4----0--4-----4--4----0--4-----4--4---------|
A|---------------------------------------------------------------------------|
E|---------------------------------------------------------------------------|

(8x)
e|---------------------------------------------------------------------------|
B|---------------------------------------------------------------------------|
G|--------2----------------4----------------4----------------4---------------|
D|--0--3-----3--3----0--3-----4--4----0--4-----4--4----0--4-----4--4---------|
A|---------------------------------------------------------------------------|
E|---------------------------------------------------------------------------|

G1 Main riff 6x at 2:34

G2 (continue throughout) 2:30
e|--7------------------------------------------------------------------------|
B|---------------------------------------------------------------------------|
G|-------7--7--7-------------------------------------------------------------|
D|---------------------------------------------------------------------------|
A|---------------------------------------------------------------------------|
E|---------------------------------------------------------------------------|

G3 Riff A (6x) 2:34
e|---------------------------------------------------------------------------|
B|---------------------------------------------------------------------------|
G|--6--------6--------4--------6---------------------------------------------|
D|--7--------7--------7--------7---------------------------------------------|
A|---------------------------------------------------------------------------|
E|---------------------------------------------------------------------------|


G3 Riff B 3:23
e|---------------------------------------------------------------------------|
B|---------------------------------------------------------------------------|
G|--7--------4-------11-------11--------7--------4--------11--------11-------|
D|--7--------7--------7--------7--------7--------7---------7---------7-------|
A|---------------------------------------------------------------------------|
E|---------------------------------------------------------------------------|

G2 3:27
e|---------------------------------------------------------------------------|
B|---------------------------------------------------------------------------|
G|---------------------------------------------------------------------------|
D|---------------------------------------------------------------------------|
A|--0------------------------------------------------------------------------|
E|---------------------------------------------------------------------------|

G4 3:29
e|---------------------------------10----------------------------------------|
B|--12---------------------------------12------------------------------------|
G|------11---------------------------------11--------------------------------|
D|---------------------------------------------------------------------------|
A|---------------------------------------------------------------------------|
E|---------------------------------------------------------------------------|

G3 Riff A 4x 3:40

G5 3:40, 3:57
e|---------------------------------------------------------------------------|
B|--5------------------------------------------------------------------------|
G|-----7--6------------6h7p6-----7/10----7--6----6--6h7----------------------|
D|-----------7--7/9-----------7----------------------------------------------|
A|---------------------------------------------------------------------------|
E|---------------------------------------------------------------------------|

G1 main riff 3:47, 4:05

G4 3:54
e|---------------------------------------------------------------------------|
B|---------------------------------------------------------------------------|
G|--------4------------------------2----------------4------------------------|
D|--0--4-----4--4------------0--3-----3--3----0--3-----4--4------------------|
A|---------------------------------------------------------------------------|
E|---------------------------------------------------------------------------|

G4 4:09
e|---------------------------------------------------------------------------|
B|---------------------------------------------------------------------------|
G|--------2----------------4-------------------------------------------------|
D|--0--3-----3--3----0--3-----4--4-------------------------------------------|
A|---------------------------------------------------------------------------|
E|---------------------------------------------------------------------------|

G3 Riff B 4:13

G4 4:18
e|----------------------------10---------------------------------------------|
B|--12----------------------------12-----------------------------------------|
G|------11----------------------------11-------------------------------------|
D|---------------------------------------------------------------------------|
A|---------------------------------------------------------------------------|
E|---------------------------------------------------------------------------|

G2 4:13
e|--5--5--5--5--5--5--5--5--5--5--5--5--5--5--5--5--5--5--5--5---------------|
B|---------------------------------------------------------------------------|
G|---------------------------------------------------------------------------|
D|---------------------------------------------------------------------------|
A|---------------------------------------------------------------------------|
E|---------------------------------------------------------------------------|

G1 3 1/2x 4:30
e|---------------------------------------------------------------------------|
B|---------------------------------------------------------------------------|
G|---------------------------------------------------------------------------|
D|---------------------------------------------------------------------------|
A|-----7-----7-----7-----7-----7-----7-----7-----7-----7-----7-----7-----7---|
E|--5-----5-----5-----5-----5-----5-----5-----5-----5-----5-----5-----5------|
    pm....................................................................

e|---------------------------------------------------------------------------|
B|---------------------------------------------------------------------------|
G|---------------------------------------------------------------------------|
D|---------------------------------------------------------------------------|
A|-----5-----5-----5-----5-----5-----5-----5-----5-----5-----5-----5-----5---|
E|--3-----3-----3-----3-----3-----3-----3-----3-----3-----3-----3-----3------|
    pm....................................................................

G1 5:36
e|---------------------------------------------------------------------------|
B|---------------------------------------------------------------------------|
G|---------------------------------------------------------------------------|
D|---------------------------------------------------------------------------|
A|-----3-----3-----3-----3-----3-----3-----2-----2-----2-----2-----2-----2---|
E|--1-----1-----1-----1-----1-----1-----0-----0-----0-----0-----0-----0------|
    pm....................................................................

G1 Main riff 5:44
G3 Riff A 5:44
Variations on G4 riff 5:44


| /  slide up
| \  slide down
| h  hammer-on
| p  pull-off
| ~  vibrato
| +  harmonic
| x  Mute note
===============================================================================
Suggest correction
comments
print report bad tab
guest
You may want to rate the tab now too:
select rating
Wanna post a correction for this tab? Suggest correction