Oops, an error
Loading. Please wait.

Slusas Li Tab

334 views 1 this week
no commentswrite comment
1 2 3 4 5
3 more votes to show rating
add to favorites
launch autoscroll
font size
0
reset
how to read this tab
guitar tuner
Autoscroll
slow
fast
+/-
esc
set tempo
stop
Help us to improve Ultimate-Guitar.com Take our survey!
×
Author
Difficulty
novice
-------------------------------------------------------------------------------
                             Slusas li - Tose Proeski (solo)
-------------------------------------------------------------------------------
Tabbed by: imperatormk
E-mail: windows_ntuser@hotmail.com

Tuning: Standard tuning

Tabs:

 e|--------------------------|--------------------------|
 B|--------------------------|--------------------------|
 G|--7--7--7--7--7--7--6--6--|--9--9--9--9--9--9--7--7--|
 D|--------------------------|--------------------------|
 A|--------------------------|--------------------------|
 E|--------------------------|--------------------------|

 e|-------------------------------------|-----------------------|
 B|-------------------------------------|-----------------------|
 G|--10--10--10--10--10--10/12--12--12--|--7--7--7--7--7/9--6---|
 D|-------------------------------------|-----------------------|
 A|-------------------------------------|-----------------------|
 E|-------------------------------------|-----------------------|

 e|--10--10--10--8--6--8--| 

(this little part goes between the two others after the first chorus only!)

 e|--------------------------|---------------------------|
 B|--------------------------|---------------------------|
 G|--7--7--7--7--7--7--6--6--|--9--9--9--9--10--9--7--7--|
 D|--------------------------|---------------------------|
 A|--------------------------|---------------------------|
 E|--------------------------|---------------------------|

 e|-------------------------------------|----------------------|
 B|-------------------------------------|----------------------|
 G|--10--10--10--10--10--10/12--12--12--|--7--7--7--7--7/9--6--|
 D|-------------------------------------|----------------------|
 A|-------------------------------------|----------------------|
 E|-------------------------------------|----------------------|

 This solo repeats three times; at the beginning, after the chorus and at the end of the song. 
 There is also a small part that is hard to be transposed because of the background sound. 
 I'll update again when I transpose it. 
Suggest correction
Give kudos to tab author, rate the tab!
1 2 3 4 5
comments
print report bad tab
guest
You may want to rate the tab now too:
select rating
Wanna post a correction for this tab? Suggest correction