Oops, an error
Loading. Please wait.

Naruto - The Rising Fighting Spirit tab

version 4
version 4

Whole song

  • My tab is complete and brings all the music with e... Show more
  • Flute part is played on the guitar too.

Interactive

250 views 1 this week
no commentswrite comment
1 2 3 4 5
2 more votes to show rating
add to favorites
×
Save as Personal and add changes to this tab that will be seen only by you. Learn more ›
×
You can save this tab as Personal to edit and correct it or add notes. All changes will be seen only by you. Learn more »
launch autoscroll
font size
0
reset
how to read this tab
guitar tuner
edit
Autoscroll
slow
fast
+/-
esc
set tempo
stop
Author
Difficulty
About this tab version
Flute part is played on the guitar too. Was this info helpful? Yes No
Full credit goes to YouTube user "Ellvournok"
and his video: https://www.youtube.com/watch?v=uzh412567ho&list=WL&index=9
Only copied his work into a tab format because It's easier for me to learn the song this way.
Thank you "Ellvournok", your tab is amazing!

e|-----------------------------------|---------------------------|
B|-----------------------------------|---------------------------|
G|-----------------------------------|---------------------------|
D|-----------------------------------|---------------------7-----|
A|------------------0h2p0----0-------|--------------------5----7-|
E|0--0--0--3--0--0--------3----3--2--|--0--0--0--3--0--0------5--|

e|-----------------------------------|----------------------||
B|-----------------------------------|----------------------||
G|-----------------------------------|----------------------||
D|-----------------------------------|-----5----5-----4---4-||
A|------------------0h2p0----0-------|----3----3-----2---2--||
E|0--0--0--3--0--0---------3---3--2--|--0---------x---------||

e|----------------------------------------------|----------------------|
B|----------------------------------------------|----------------------|
G|/9------9--11--12----11----11h12p11p9---------|--/9----9-9-9--11--12-|
D|---------------------------------------12~----|----------------------|
A|----------------------------------------------|----------------------|
E|----------------------------------------------|----------------------|

e|---------------------------------------------------------------||
B|-------------------13~---13--15--17---15~---13-12-----15---12~-||
G|14~---14--12--11----------------------------------14~----------||
D|---------------------------------------------------------------||
A|---------------------------------------------------------------||
E|---------------------------------------------------------------||

e|--------------------------------------------------------------------------|
B|--------------------------------------------------------------------------|
G|--------------------------------------------------------------------------|
D|--9-7-9--9----9-7-9--9----9-7-9--9-9p7-7-7--------------------------------|
A|7-----------7-----------7-------------------10-10-10-7-7-10-7-7-10-7-7-10-|
E|--------------------------------------------------------------------------|

e|------------------------------------------------------------------------------------------|
B|------------------------------------------------------------------------------------------|
G|-----7---------7--7-9~---9--7h9--9--7h9--9s12-12-12-9h12-12s14-14--14-14-12h14~--14-12-14-|
D|-7-9-----7-7h9----------------------------------------------------------------------------|
A|------------------------------------------------------------------------------------------|
E|------------------------------------------------------------------------------------------|


e|--------------------------------------------------------------||
B|-12--15-12-12-15-12-12-15-12-12-15-12-15--15b--15b--15b--15b~-||
G|--------------------------------------------------------------||
D|--------------------------------------------------------------||
A|--------------------------------------------------------------||
E|--------------------------------------------------------------||


e|------------------------------------------------------------------------|
B|---------------15--------------------17~--15----------------------------|
G|-----------14~------17~--16-14-16~-----------17-16~------14~-----14-16~-|
D|17~--16-17-------------------------------------------17-------17--------|
A|------------------------------------------------------------------------|
E|------------------------------------------------------------------------|

e|-------------------------------------------------------------------------------||
B|----------------15-------------------17--15------------------------------------||
G|------------14~-----17~---16-14-16~---------17--16--14-------------------------||
D|17~--16-17----------------------------------------------17--14---14---14---14~-||
A|-------------------------------------------------------------------------------||
E|-------------------------------------------------------------------------------||

 
************************************

| h  Hammer-on
| p  Pull-off
| x  Dead note
| /  Slide up
| ~  Vibrato
| b  Bend
 

************************************
Suggest correction
Creating personal tab
Creating personal tab
You can edit any tab online and save it as your Personal.

You can edit, replace or remove any tab part or add personal notes – all changes will be seen only by you.

Personal tabs can be accessed anytime from any device, even offline.
Learn more »
Give kudos to tab author, rate the tab!
1 2 3 4 5
comments
print report bad tab
guest
You may want to rate the tab now too:
select rating
Wanna post a correction for this tab? Suggest correction