Oops, an error
Loading. Please wait.

Raising Fighting Spirit tab

version 1
version 1

Whole song

Interactive

40,830 views 6 this week
5 commentsread comments
1 2 3 4 5
x 5
add to favorites
×
Save as Personal and add changes to this tab that will be seen only by you. Learn more ›
×
You can save this tab as Personal to edit and correct it or add notes. All changes will be seen only by you. Learn more »
launch autoscroll
font size
0
reset
how to read this tab
guitar tuner
edit
Autoscroll
slow
fast
+/-
esc
set tempo
stop
Difficulty
intermediate
The Raising Fighting Spirit

Tabbed by: pHo3n!x P.C.

Standart tuning

16161616 means not 1-6-1-6-1-6-1-6 but 16-16-16-16 fast repeaded... okay?^.^
Hope, i tabbed right ;)

For more questions ask me on pecoll@web.de
www.pacour.de.tp

Have fun
Part 1
e|----------------------------------------------------|
b|----------------------------------------------------|
g|--------------------------7-6-----------------55-44-|
d|--------------------------7-6-----------------55-44-|
a|--------------------------5-4-----------------33-22-|
E|--000-210-521-210-000-210-----000-210-521-210-------|


e|------------------------------------------------------|
b|------------------------------------------------------|
g|-9-99-11-12-11-7-9-999-11-12-14----17-171717-19-17-16-|
d|------------------------------------------------------|
a|------------------------------------------------------|
E|------------------------------------------------------|

e|-----------------------------------------------------|
b|-----------------------------------------------------|
g|-14-12-11-12-14-16-----------------------------------|
d|--------------------10-10--99------------------------|
a|--------------------10-10--99------------------------|
E|--------------------8--8---77------------------------|

e|------------------------------------------------------|
b|------------------------------------------------------|
g|-9-99-11-12-11-7-9-999-11-12-14----17-171717-19-21-19-|
d|------------------------------------------------------|
a|------------------------------------------------------|
E|------------------------------------------------------|

e|-----------------------------------------------------|
b|-----------------------------------------------------|
g|-17-14-19-16-----------------------------------------|
d|------------------10-10--12-12-----------------------|
a|------------------10-10--12-12-----------------------|
E|------------------8--8---10-10-----------------------|

Part 2
e|-----------------------------------------------------|
b|-----------------------------------------------------|
g|-4-4-2-4--4-4-2-4--4-4-2-4--4422--25-25-255-25-------|
d|--2--------2--------2--------------------------------|
a|-----------------------------------------------------|
E|-----------------------------------------------------|

e|-----------------------------------------------------|
b|-----------------------------------------------------|
g|-4-7-4-7/9--99-9-7-9-12-9-12/16-16161616-16-1414-----|
d|-----------------------------------------------------|
a|-----------------------------------------------------|
E|-----------------------------------------------------|

Part 3
e|-----------------------------------------------------|
b|-5--5-8-10/15-11-10-8-10--17-15-13-12--8-10-8-10-12--|
g|-----------------------------------------------------|
d|-----------------------------------------------------|
a|-----------------------------------------------------|
E|-----------------------------------------------------|

e|-----------------------------------------------------|
b|-5--5-8-10/15-11-10-8-10--17-15-13-12-10-8--17-17-17-|
g|-----------------------------------------------------|
d|-----------------------------------------------------|
a|-----------------------------------------------------|
E|-----------------------------------------------------|
Suggest correction
Creating personal tab
Creating personal tab
You can edit any tab online and save it as your Personal.

You can edit, replace or remove any tab part or add personal notes – all changes will be seen only by you.

Personal tabs can be accessed anytime from any device, even offline.
Learn more »
comments
print report bad tab
5 comments total. Showing first comments.
0 reply
silver6100 10 Dec 01, 2007 11:33 AM

great tab!its just that its a little too hard to figure out the strum pattern

0 reply
NejiHyuga900 864 Dec 14, 2007 01:04 PM

I watched a video of you playing your tab on YouTube. Well it stinks and this tab stinks (no offense). When you put 775
to 664, it is suppose to be 775 to 775 below. I will show you the main part of the song:
h

-----
-----

-----7-----
-----^-----7-----7-

-----0-2-0-----0-----5---
--7-
-0--0--0--3--2--0-----3--
---0--0--0--3--2--0-----5
-

0 reply
NejiHyuga900 864 Dec 14, 2007 01:05 PM

Whoops, I didn't know that was going to happen when I put that correction tab.

guest
Wanna post a correction for this tab? Suggest correction