Oops, an error
Loading. Please wait.
We have an official Sadness And Sorrow tab made by UG professional guitarists. Check out the tab »
×
32,406 views 24 this week
4 commentsread comments
1 2 3 4 5
x 9
add to favorites
×
Save as Personal and add changes to this tab that will be seen only by you. Learn more ›
×
You can save this tab as Personal to edit and correct it or add notes. All changes will be seen only by you. Learn more »
launch autoscroll
font size
0
reset
how to read this tab
guitar tuner
edit
Autoscroll
slow
fast
+/-
esc
set tempo
stop
Author
Difficulty
I'm teaching myself how to play guitar, so I decided to challenge myself.  I just tried
after note after note until I came up with the right combination.  This sounds pretty
like the actual song to me, hopefully it will for yall too. Extremely simple, just made 
for the folks who want to play it but aren't good enough yet to play the other guitar pro
of the tabs on the internet.

E---3-2----------3-2---------------------------|
B-------3------------0-------------------------|
G----------------------------------------------|
D--2------------2------------------------------|
A----------------------------------------------|
E-0------------0-------------------------------|

E-1-0---------0-3-5---------3-2-3-5---7---5-2--|
B-----0-------------5---------------3----------|
G----------------------------------------------|
D----------------------------------------------|
A----------------------------------------------|
E----------------------------------------------|

E-1-0-----------------------3-2-3-5------------|
B-----0------0-3-5------------------3-5--------|
G------------------5---------------------------|
D----------------------------------------------|
A----------------------------------------------|
E----------------------------------------------|

            
            
Suggest correction
Creating personal tab
Creating personal tab
You can edit any tab online and save it as your Personal.

You can edit, replace or remove any tab part or add personal notes – all changes will be seen only by you.

Personal tabs can be accessed anytime from any device, even offline.
Learn more »
comments
print report bad tab
4 comments total. Showing first comments.
0 reply
cheesecakechan 10 Aug 29, 2008 08:07 AM

E-1-0---------
B-----0-------

When you see this pattern, the 1 should be a 2 :)
so for example:

E-2-0---------0-3-5---------3-2-3-5---7---5-2--|
B-----0-------------5---------------3----------|

0 reply
sonicaidan37 129 Aug 14, 2009 03:58 PM

It's actually: E--2--P0--------------- P= Pull-off
B---------0------------

0 reply
sonicaidan37 129 Aug 14, 2009 03:59 PM

cheesecakechan is right

guest
You may want to rate the tab now too:
select rating
Wanna post a correction for this tab? Suggest correction