Oops, an error
Loading. Please wait.

Alone Tab

8,449 views 9 this week
no commentswrite comment
1 2 3 4 5
1 last vote to show rating
add to favorites
launch autoscroll
font size
0
reset
how to read this tab
guitar tuner
Autoscroll
slow
fast
+/-
esc
set tempo
stop
Help us to improve Ultimate-Guitar.com Take our survey!
×
Difficulty
intermediate
E||--0--------0--------------|------------------------|
B||--------1-----3--------5--|--1--------0--1---------|
G||-----0--------------0-----|--------2---------------|
D||-----------------0--------|-----2------------------|
A||--3-----------2-----------|--0---------------------|
E||--------------------------|-------------------3----|



--5-----------3--------5--|--0-----------------0----|--0--------0-----------3--|
-----------1--------------|-----------0--1----------|--------1-----3-----------|
--------2-----------0-----|--------2--------2-------|-----0--------------0-----|
-----3-----------0--------|-----2-------------------|-----------------0--------|
--------------------------|--0----------------------|--3-----------2-----------|
--1-----------3-----------|-------------------------|--------------------------|

       
--------------------0----|--5-----------7--------3--|--5--------------------|
--1--------0--1----------|-----------1--------0-----|-----------0--1--------|
--------2--------2-------|--------2-----------------|--------2--------------|
-----2-------------------|-----3-----------0-----0--|-----2-----------------|
--0----------------------|--------------------------|--0--------------------|
-------------------------|--1-----------3-----------|-----------------------|


  
--5-----------------8-----|--7-----------3-----3-----|
--------------1-----------|-----------0--------0-----|
--------2-----------2-----|--------0-----------------|
-----3-----3-----3-----3--|-----0-----------0-----0--|
--------------------------|--------------------------|
--1-----------------------|--1-----------------------|


 
--5-----------------8-----|--7-----------3-----------|
--------------1-----------|-----------0--------0-----|
--------2-----------2-----|--------0--------------0--|
-----3-----3-----3-----3--|-----0-----------0--------|
--------------------------|--------------------------|
--1-----------------------|--1-----------------------|


   
--5-----------------8-----|--7-----------3--7--8--10-|--------------1--8-10--12|
--------------1-----------|-----------0-----0--------|-----------1-------------|
--------2-----------2-----|--------0-----------0-----|--------2-----------2----|
-----3-----3-----3-----3--|-----0-----------------0--|-----3-----------3-------|
--------------------------|--------------------------|--0----------------------|
--1-----------------------|--1-----------------------|-------------------------|


   
--10---------------|--0--------0--------------|--------------------0----|
-------------------|--------1-----3--------5--|--1--------0--1----------|
-------------------|-----0--------------0-----|--------2--------2-------|
-------------------|-----------------0--------|-----2-------------------|
--2----------------|--3-----------2-----------|--0----------------------|
-------------------|--------------------------|-------------------------|

 
--5-----------3--------5--|--0-----------------0-----|
-----------1--------------|-----------0--1-----------|
--------2-----------0-----|--------2-----------------|
-----3-----------0--------|-----2-----------2-----2--|
--------------------------|--0-----------------------|
--1-----------3-----------|--------------------------|


  
--0--------0-----------3--|--------------------0----|--5-----------7--------3--|
--------1-----3-----------|--1--------0--1----------|-----------1--------0-----|
-----0--------------0-----|--------2----------------|--------2-----------------|
-----------------0--------|-----2-----------2-------|-----3-----------0-----0--|
--3-----------2-----------|--0----------------------|--------------------------|
--------------------------|-------------------------|--1-----------3-----------|


  
--5----------------------|--5-----------7--------3--|--5-----------------0-----|
-----------0--1----------|-----------------------0--|-----------0--1-----------|
--------2--------2-------|--------2-----------0-----|--------2-----------------|
-----2--------------2----|-----3-----3-----0--------|-----2-----------2-----2--|
--0----------------------|--------------------------|--0-----------------------|
-------------------------|--1-----------3-----------|--------------------------|


 
--------------------------|--------------------------|
-----------------------0--|--------------1-----------|
--------2-----------0-----|--------2-----------2-----|
-----3-----3-----0--------|-----2-----2-----2-----2--|
--------------------------|--------------------------|
--1-----------3-----------|--1-----------------------|

   
--------------0-----------|--------------------------|-------------------------|
--------------------1-----|--------------1-----------|-------------------------|
--------2--------------2--|--------2-----------2-----|--------2-----2-----2----|
-----2-----2-----2--------|-----2-----2-----2-----2--|-----2-----2-----2-------|
--------------------------|--------------------------|-------------------------|
--1-----------------------|--1-----------------------|--1----------------------|


                                   
--1----------------|-------------------||
--1----------------|-------------------||
--2----------------|-------------------||
-------------------|-------------------||
-------------------|-------------------||
-------------------|-------------------||
Suggest correction
Give kudos to tab author, rate the tab!
1 2 3 4 5
comments
print report bad tab
guest
You may want to rate the tab now too:
select rating
Wanna post a correction for this tab? Suggest correction