Oops, an error
Loading. Please wait.

Need To Be Strong Bass Tab

10 views 1 this week
no commentswrite comment
1 2 3 4 5
3 more votes to show rating
add to favorites
launch autoscroll
font size
0
reset
guitar tuner
Autoscroll
slow
fast
+/-
esc
set tempo
stop
Help us to improve Ultimate-Guitar.com Take our survey!
×
Author
Difficulty
novice
About this tab version
More detailed and easy to learn. Was this info helpful? Yes No
Naruto - "Need to be Strong" Theme
By: Toshiro Masuda

Cover video: https://www.youtube.com/watch?v=-DyFc0omktc

Tuning: Standard ( E-A-D-G )

00:00
G|----------------------------------------------------| 1x
D|----------------------------------------------------|
A|----------------------------------------------------|
E|-5--0-6-5-4--4\0----5--0-6-5-4--4\0-----------------|

00:16
G|----------------------------------------------------| 1x
D|----------------------------------------------------|
A|----------------------------------------------------|
E|-0-2-3-0-5-0-6--0-2-3-0-5-6-0-----------------------|

00:20
G|----------------------------------------------------| 3x
D|----------------------------------------------------|
A|----------------------------------------------------|
E|-0-2-3-0-5-0-5-6-0-6-7-0-7-8-0----------------------|

00:32
G|----------------------------------------------------| 1x
D|----------------------------------------------------|
A|----------------------------------------------------|
E|-0-0-0-0-0-0-0-0-0-0-0-0-0-0-0----------------------|

00:48
G|----------------------------------------------------| 1x
D|----------------------------------------------------|
A|----------------------------------------------------|
E|-5-6-7-8-0------------------------------------------|

00:50
G|----------------------------------------------------| 4x
D|----------------------------------------------------|
A|----------------------------------------------------|
E|-0-2-3-0-5-0-5-6-0-6-7-0-7-8-0----------------------|

01:06
G|----------------------------------------------------| 4x
D|----------------------------------------------------|
A|----------------------------------------------------|
E|-0-6-0-6-0-6-3--0-0-0-0-0-0-0-----------------------|

G|----------------------------------------------------| 4x
D|----------------------------------------------------|
A|----------------------------------------------------|
E|-0-2-3-0-3-0-2--2-2-2-2-2-2-2-----------------------|

01:45
G|----------------------------------------------------|
D|----------------------------------------------------|
A|----------------------------------------------------|
E|-/12\--0--0-0--0--0-0--0--0-0--0--0-0---------------|

01:54
G|----------------------------------------------------| 1x
D|----------------------------------------------------|
A|----------------------------------------------------|
E|-5-6-7-8-0------------------------------------------|

01:56
G|----------------------------------------------------| 4x
D|----------------------------------------------------|
A|----------------------------------------------------|
E|-0-2-3-0-5-0-5-6-0-6-7-0-7-8-0----------------------|

02:12
G|----------------------------------------------------| 4x
D|----------------------------------------------------|
A|----------------------------------------------------|
E|-0-6-0-6-0-6-3--0-0-0-0-0-0-0-----------------------|

02:28
G|----------------------------------------------------| 4x
D|----------------------------------------------------|
A|----------------------------------------------------|
E|-0-2-3-0-3-0-2--2-2-2-2-2-2-2-----------------------|

02:50
G|----------------------------------------------------| 1x
D|----------------------------------------------------|
A|----------------------------------------------------|
E|-/12-12-12-12-12\--0--0-0--0--0-0--0--0-0--0--0/12--|
Suggest correction
Give kudos to tab author, rate the tab!
1 2 3 4 5
comments
print report bad tab
guest
You may want to rate the tab now too:
select rating
Wanna post a correction for this tab? Suggest correction