Oops, an error
Loading. Please wait.

Chalk Teeth tab

by Toska
2,614 views 75 this week
7 commentsread comments
1 2 3 4 5
x 9
add to favorites
×
Save as Personal and add changes to this tab that will be seen only by you. Learn more ›
×
You can save this tab as Personal to edit and correct it or add notes. All changes will be seen only by you. Learn more »
launch autoscroll
font size
0
reset
how to read this tab
guitar tuner
edit
Autoscroll
slow
fast
+/-
esc
set tempo
stop
About this tab version
Because this is the first version of the tab, altough it is not fully completed. Was this info helpful? Yes No
[Intro]
d|-----------------------|------------------------------------------------------|--------------------------|
A|-----------------------|------------------------------------------------------|----6p5----6p5---6p5------|
F|---------------4---4---|------------------------------------------------------|---------8------8----8----|
C|---0h2--2------5---5---|----0h2--2-------------------------------0h2--2-------|--------------------------|
G|---0h2--2------6---6---|----0h2--2-------1p0-------------3p0-----0h2--2-------|--------------------------|
C|---0h2--2--------------|----0h2--2------------1p0-2p0------------0h2--2-------|--------------------------|

d|----------------------|--------------------------------------------------------|
A|----------------------|--------------------------------------------------------|
F|---------------4---4--|--------------------------------------------------------|
C|---0h2--2------5---5--|-----0h2--2-------------------------------0h2--2--------|
G|---0h2--2------6---6--|-----0h2--2------1p0-------------3p0------0h2--2--------|
C|---0h2--2-------------|-----0h2--2------------1p0-2p0------------0h2--2--------|

[Djent- part]
d|---/------------------------|----------------------------------------------------|
A|---/------------------------|----------------------------------------------------|
F|---/------------------------|----------------------------------------------------|
C|---/------------------------|----------------------------------------------------|
G|---/------------------------|----------------------------------------------------|
C|---/--2---0-0---2---0-0---2-|---0-0----2---0-0---2---0-0---2---2h3---3-3-3-------|

d|--------------------------|--------------------------------------------------------|
A|--------------------------|--------------------------------------------------------|
F|--------------------------|--------------------------------------------------------|
C|--------------------------|-----------------------------6-6------------------------|
G|--------------------------|-----------------------------6-6----------4-------------|
C|---2---0-0---2---0-0---2--|--0-0----2---0-0---2---0-0---6-6------2--------3--------|

d|----------------------------------------|----------------------------------------------|
A|----------------------------------------|---------5*-----------------------------------|
F|----------------------------------------|---------5*----5------2-----1-----4-----------|
C|----------------------------------------|---------5*-----------------------------------|
G|----------------------------------------|---------------6------------------------------|
C|---2---0-0---2---2-0-2h3---3p2---0h2----|---------------7------3-----2-----5-----------|

d|--------------------------------------------------|----------------------------|
A|--------------------------------------------------|----------------------------|
F|---5------2---------------------------------------|------5-----2-----1-----4---|
C|-----------------0h2---0h2---3p2----0h2h3p2---0---|----------------------------|
G|---6------3------0h2---0h2---3p2----0h2h3p2---0---|------6---------------------|
C|---7-------------0h2---0h2---3p2----0h2h3p2---0---|------7-----3-----2-----5---|

d|-----------------------------------------------|----------------------------------|
A|-----------------------------------------------|----------------------------------|
F|-----------------------------------------------|---------------------10-----------|
C|---9p7---7---9p7---7---9p7---7---9p7---7---9p7-|--7---9/10---10---10-------10-----|
G|-----------------------------------------------|----------------------------------|
C|-----------------------------------------------|----------------------------------|

d|----------------------------------------------------|---------------------------------|
A|----------------------------------------------------|---------------------------------|
F|----------------------------------------------------|---------------------------------|
C|----------------------------------------------------|---6-6---------------------------|
G|----------------------------------------------------|---6-6----------4----------------|
C|---2---0-0---2---0-0---2---0-0---2---0-0---2---0-0--|---6-6------2--------2-----------|

[Ambient- part]
d|------------------------------------------------------|----------------------------------------------------|
A|------------------------------------------------------|----------------------------------------------------|
F|---------2------------2--------------2-----------2----|--------2----------2---------------2------------2---|
C|------0----0------0------0---------0----0------0---0--|-----0-----0-----0----0---------0----0------0----0--|
G|------------------------------------------------------|----------------------------------------------------|
C|---3------------3---------------3-----------3---------|---3----------3--------------3------------3---------|

        muted
d|-----------------------------------------|---------------------------0-------------|
A|-----------------------------------------|-------------------------2---0-----------|
F|---------2----------2----2---------2-----|------2---2-----------2---------2--------|
C|------0----0------0----0---------0----0--|----0---0--------0-----------------0-----|
G|-----------------------------------------|-----------------------------------------|
C|---3------------3---------------3--------|---3-------------3-----------------------|

d|--------------------------------------6----|-------------------------------------|
A|--------------------------------------6----|-------------------------------------|
F|---------2------------2----2--------0---0--|--------3------------3----3----------|
C|------0----0------0----0-------------------|-----0----0------0----0--------------|
G|---------------------------------6---------|-------------------------------------|
C|---3------------3--------------------------|----5-----------5--------------------|

d|-------------------------------------------------------|---------------------------------------------------|
A|-------------------------------------------------------|---------------------------------------------------|
F|---------3----------3----3---------3-----------3---3---|--------7-----------0------------0----------0--0---|
C|------0----0------0----0---------0----0------0---0-----|------0----0------0----4------4----4------4-----4--|
G|-------------------------------------------------------|---------------------------------------------------|
C|---5------------5---------------5-----------5----------|-----8-----------1---------0----------0------------|

d|---------------------------------------------|--------------------------------------------------6-----|
A|-------------------------------5-------------|--------------------------------------------------6-----|
F|---------0------------0----0---4--------0----|-------0----0---------0----------2-------------0----0---|
C|------4----4------4----4-------------4----4--|----4----4---------4----4-----0----0--------------------|
G|---------------------------------------------|--------------------------------------------6-----------|
C|---0------------0-------------------0--------|---0------------0----------4----------------------------|

d|-----------------------------------------|----------------------------------------------------------------|
A|-----------------------------------------|--------------------6-----------6-----------5-----------5-------|
F|---------3------------3----3-------3-----|--------3---3-----------3-----------3-----------3-----------3---|
C|------0----0------0----0---------0----0--|----0---0--------0-----------0-----------0-----------0----------|
G|-----------------------------------------|----------------------------------------------------------------|
C|---5------------5---------------5--------|---5-------------5-----------5-----------5-----------5----------|

d|--------------------------------------------------------|------------------------------|
A|--------------------------------------------------------|------------------------------|
F|---------7-----------7----7---------7-----------7---7---|-----2/3----------3-----------|
C|------0----0------0----0---------0----0------0---0------|-------------0--------0-------|
G|--------------------------------------------------------|------------------------------|
C|---8------------8---------------8-----------8-----------|-----4/5---5----5---5---------|

d|----------------------------------------|---------------------------------------------------------------|
A|----------------------------------------|---------------------------------------------------------------|
F|------0--------0--------0---------------|----2/3------------3----------------------0--------0-----------|
C|-------------0--------0-----0--------0--|---------------0----------0-------------0--------0-----0---0---|
G|----------------------------0-----0-----|-------------------------------------------------------0---0---|
C|---5------4--------1--------0---0-------|----4/5-----5----5----5---------5---4--------1---------0----0--|

d|-----------------------------------------------------------|----------------------------/---|
A|-----------------------------------------------------------|----------------------------/---|
F|---2/3------------3p0-------------------0--------0---------|----2/3----------3------3---/---|
C|------------0------------------------0--------0-----0---0--|------------0------0----5---/---|
G|----------------------------------------------------0---0--|----------------------------/---|
C|---4/5---5----5--------5------5---4--------1--------0---0--|----4/5---5----5--------5---/---|

d|--------------------------------|--7*----------------------------------------------------------------------|
A|--------------------------------|--7*-------------------------3-3-3-3-3-3----------------------------------|
F|--------------------------------|--7*----3---3----------------2-2-2-2-2-2----------------------------------|
C|---4------1-1--------------5-5--|-----------------1-1------------------------4-------1----------1----5-5---|
G|---4------1-1--------------5-5--|-----------------1-1------------------------4-------1----------1----5-5---|
C|---4------1-1---0---0------5-5--|--------5---5--0-1-1---0-0-0-0-0-0-0-0-0----4---0---1---0-0----1----5-5---|

d|---5---5---6---6---5-5-5-5-5-5----|-------------------------------------/------|
A|---8---8---8---8---7-7-7-7-7-7----|-------------------------------------/------|
F|---7---7---8---8---7-7-7-7-7-7----|-------------------------------------/------|
C|---5---5---8---8---7-7-7-7-7-7----|--4------1-1------------5-5-5-5------/------|
G|---5---5---6---6---5-5-5-5-5-5----|--4------1-1------------5-5-5-5------/------|
C|---5---5---6---6---5-5-5-5-5-5----|--4------1-1---0---0----5-5-5-5------/------|

d|----------------------------------|--------------------------|
A|----------------------------------|--------------------------|
F|----------------------------------|--------------------------|
C|---5--5-----1--1------------------|---4-----1--------1-5-5---|
G|---5--5-----1--1------------------|---4-----1--------1-5-5---|
C|---5--5--0--1--1-0-0-0--0-0-0-0---|---4--0--1--0--0--1-5-5---|

d|------------------------------------|----------------------------/---|
A|------------------------------------|----------------------------/---|
F|------------------------------------|----------------------------/---|
C|---5---8---1---3--------------------|---4---1--------5-5-5-5-5---/---|
G|---5---5---1---1--------------------|---4---1--------5-5-5-5-5---/---|
C|---5---5---1---1---0-0-0--0-0-0-0---|---4-0-1-0--0-0-5-5-5-5-5---/---|

[Muted part]
d|---------------------------------------|----------------------------|
A|---------------------------------------|----------------------------|
F|---------------------------------------|----------------------------|
C|---------------------------------------|---4------------------------|
G|---------------------------------------|---4------------------------|
C|---5--7--5---1--1--1---0-0--0-0--0-0---|---4--1-1-1--0-0--5-5-5-5---|

d|----------------------------|-------------------------------|
A|----------------------------|-------------------------------|
F|------------3---------------|-------------------------------|
C|-----8----------------------|---4---------------------------|
G|----------------------------|---4---------------5-5-5-3-5---|
C|---5---5--1---1--0-0--0-0---|---4--0-1-1--0-0---5-5-3-3-5---|

d|---3-------5h6p5--3---------5---------5------8-------|---8/10----------|
A|-----3--------------------4---4-----4------7---7-----|---------11------|
F|-------3--------------4/5--------/5-----/8-------8---|------------12---|
C|-----------------------------------------------------|-----------------|
G|-----------------------------------------------------|-----------------|
C|-----------------------------------------------------|-----------------|

d|---10-------10h11p10-------8---|---------8---------11-----8/10---------|
A|------11----------------10-----|------10--------13----13-------11------|
F|---------12----------11--------|---11-------/14-------------------12---|
C|-------------------------------|---------------------------------------|
G|-------------------------------|---------------------------------------|
C|-------------------------------|---------------------------------------|

d|---3------5h6p5-3-------5-----|--------5------8------//10---------|---10--13--10--9---12---|
A|-----3----------------4---4---|------4------7---7---------11------|---11--11--11--10--13---|
F|-------3----------4/5---------|---/5-----/8-------8----------12---|---12--12--12--11--14---|
C|------------------------------|-----------------------------------|------------------------|
G|------------------------------|-----------------------------------|------------------------|
C|------------------------------|-----------------------------------|------------------------|

d|-----------------------------------------------|---------------3---|
A|-----------------------------------------------|---------------3---|
F|---2-2-----------------------------------------|---------------5---|
C|--------4-4--4-4-------------------------------|---4---5---3---5---|
G|------------------6--3-3--6-6-5----------------|---4---5---3---3---|
C|---------------------------------4-4--8-8--0---|---4---5---3---3---|

d|-----------------------------------------------------|----------------------------------------|
A|-----------------------------------------------------|----------------------------------------|
F|---9------12-----------------------12*----7*---------|-------------10----9-------8-7----------|
C|-------9-----12----------------12*-----7*------------|----------10---------10----------5------|
G|-----7----------10---10h12-9-----------------5*-4*---|----------------------------------------|
C|---7------10-----------------------------------------|---5/7/8---------7------------------3---|

d|------------------------------------|-------3------------|
A|---------13-----------10-------10---|-------3------------|
F|------------11-----11---------------|-------5--------4---|
C|------12---------------------7------|-------5------------|
G|---13------------9---------8--------|-------3------------|
C|------------------------------------|---3---3---/5-------|

[Chugging part 4x]                                           Last time
d|-----------------------------|---------------------------|--------|
A|-----------------------------|---------------------------|--------|
F|---------9-------------8-8---|---------9-------------8---|--------|
C|-----------10------5-5-------|-----------10--------5-----|---5*---|
G|---------------6-6-----------|---------------0-5-6-------|---5*---|
C|---7-7-7---------------------|---7-7-7-------------------|---5*---|

[Crazy Fuzz Part 4x]                                           Last time
d|-----------------------------|--------------------------|--------|
A|-----------------------------|--------------------------|--------|
F|---------9-------------8-8---|---------9------------8---|--------|
C|-----------10------5-5-------|-----------10-------5-----|---/5---|
G|---------------6-6-----------|--------------0-5-6-------|---/5---|
C|---7-7-7---------------------|---7-7-7------------------|---/5---|

[Strumming]
d|-----------------|--------------|-------------|---------------|-----------|
A|---13-13-13-13---|---8-8-10-10--|---5-5-6-6---|---8-8-10-10---|---12-12---|
F|---x--x--x--x----|---x-x-x--x---|---x-x-x-x---|---x-x-x--x----|---x--x----|
C|---x--x--x--x----|---x-x-x--x---|---x-x-x-x---|---x-x-x--x----|---x--x----|
G|---12-12-12-12---|---7-7-8--8---|---3-3-5-5---|---7-7-8--8----|---10-10---|
C|-----------------|--------------|-------------|---------------|-----------|

[Hammer-on/ Pull-off Part]
d|---------------------------------------|----------------------------|
A|---------------------------------------|----------------------------|
F|---------------------------------------|----------------------------|
C|---------------------------------------|----------------------------|
G|---------------------------------------|----------------------------|
C|---------------------------------------|----------------------------|

************************************

| p  Pull-off
| h  Hammer-on
| /  Slide up
| *  Natural harmonic

************************************

            
            
Suggest correction
Creating personal tab
Creating personal tab
You can edit any tab online and save it as your Personal.

You can edit, replace or remove any tab part or add personal notes – all changes will be seen only by you.

Personal tabs can be accessed anytime from any device, even offline.
Learn more »
comments
print report bad tab
7 comments total. Showing first comments.
0 reply
maartenbaert 10 Mar 25, 2017 09:08 AM

Rabea's guitar playing isn't easy to tab but you did a good job, sounds very close to what it should be. Thanks!

0 reply
JoshiiRammstein 32 Apr 06, 2017 10:52 AM

Wicked man this is great so far! Wanna get more of it!

+1 reply
b3njii0 12 Jul 27, 2017 05:01 PM

Nice work, can't wait until this is finished. Checking it everyday to see all the new parts :D

guest
You may want to rate the tab now too:
select rating
Wanna post a correction for this tab? Suggest correction