Oops, an error
Loading. Please wait.

Sex And Violence Bass Tab

235 views 1 this week
no commentswrite comment
1 2 3 4 5
3 more votes to show rating
add to favorites
launch autoscroll
font size
0
reset
guitar tuner
Autoscroll
slow
fast
+/-
esc
set tempo
stop
Help us to improve Ultimate-Guitar.com Take our survey!
×
Total Chaos
Sex and Violence: Track 7
Bass Tab
Tabbed by: Max Butler

\=SLIDE

DRUM INTRO
THEN


G|-----------------------------------------|
D|-------5-5--4-4-----------2-2--3-3--5----|
A|---5-5----------5----3-3-----------------|
E|-----------------------------------------|


G|----------------------------------------------|
D|----------------------------------------------|
A|-------2-2-3-3---3\5-5---------2-2-3-3---3\5-5|
E|--3-3-------------------3-3-------------------|

I fuckin' love total chaos
Suggest correction
Give kudos to tab author, rate the tab!
1 2 3 4 5
comments
print report bad tab
guest
You may want to rate the tab now too:
select rating
Wanna post a correction for this tab? Suggest correction