Oops, an error
Loading. Please wait.

Sex And Violence Tab

139 views 1 this week
no commentswrite comment
1 2 3 4 5
please rate
add to favorites
launch autoscroll
font size
0
reset
how to read this tab
guitar tuner
Autoscroll
slow
fast
+/-
esc
set tempo
stop
Help us to improve Ultimate-Guitar.com Take our survey!
×
Author
Difficulty
novice
-------------------------------------------------------------------------------
                        Sex and Violence - Total Chaos
-------------------------------------------------------------------------------
Tabbed by:replaceits
Email:sidw@ymail.com

Tuning:standard
e|---------------------------------------------------------------------------|
B|---------------------------------------------------------------------------|
G|-7-7-7-7-7-7-7-7--5-5-5-5-5-5-5-5--4-4-4-4-4-4-4-4-4-4-4-4-4-4-4-4---------|
D|-7-7-7-7-7-7-7-7--5-5-5-5-5-5-5-5--5-5-5-5-5-5-5-5-5-5-5-5-5-5-5-5---------|
A|-5-5-5-5-5-5-5-5--3-3-3-3-3-3-3-3--5-5-5-5-5-5-5-5-5-5-5-5-5-5-5-5---------|
E|-----------------------------------3-3-3-3-3-3-3-3-3-3-3-3-3-3-3-3---------|

this is actually a exploited song that total choas did a cover of but yea just play that 
and over it changes rythem randomly so just listen to it, also do a pick slide at the 
after the bass comes in

lyrics:SEX AND VIOLENCE!!!

(theres also a random line near the end they put in but its to unaudible for me to 
out)
Suggest correction
Give kudos to tab author, rate the tab!
1 2 3 4 5
comments
print report bad tab
guest
You may want to rate the tab now too:
select rating
Wanna post a correction for this tab? Suggest correction