Oops, an error
Loading. Please wait.

Cenit De La Esperanza tab

22 views 1 this week
no commentswrite comment
1 2 3 4 5
3 more votes to show rating
add to favorites
×
Save as Personal and add changes to this tab that will be seen only by you. Learn more ›
×
You can save this tab as Personal to edit and correct it or add notes. All changes will be seen only by you. Learn more »
launch autoscroll
font size
0
reset
how to read this tab
guitar tuner
edit
Autoscroll
slow
fast
+/-
esc
set tempo
stop
INTRO:
 LA                        FA           SOL               LA
e-----------------------------------------------------------------
B------------------------------------------------------------------
G---------9-7---7---10--9--7----------9-10-9-------------9-10-9--7-
D-7-7-7-7-----9---9-----------8-8-8-8--------10-10-10-10------------
A-------------------------------------------------------------------
E-------------------------------------------------------------------

GUITARRA SOLISTA para la letra
e------------------------------------------------------------
B-------------------------------------------------------------
G--------------------------7-9--------------------------------
D-7-7-7-7--9-10-9--5-5-5-5-----7-7-7-7-7--9-9-9-99--5-9-7-5-7-
A-------------------------------------------------------------
E--------------------------------------------------------------

GUITARRA RITMICA
LA         FA               SOL
En el cenit de lo extraño, recorre
LA      FA            SOL
mi mente perdida y extrañada
LA                FA
por el ansia de saber
     SOL            LA
si lo magico del sueño
MI
es real.... !!!!

MI             DO
El REFLEJO DE LO ABSURDO
RE            SI      MI         DO
es algo, que detiene, el seguro, camino
         RE      LA  SOL      
al destino!!
MI      DO         RE
Recorro mis sueños y ciego
         SI
por el miedo!!
MI               DO    RE               LA1   FA1  LA1  
no quiero encontrar la llama en el cielo

LA......
Juntando realidades, en el extremo fin
de sentir, lo indevido 
El fuego, extenso del horror, y confusion 
de su mirada, es real!!!


e--------------------------------------------------
B------------------------------------------------
G-------------------7--5---------5-5--3-3--1-1-1--
D-7-7--9-10-9--5--3------7--5--3------------------
A---------------------------------------------------
E--------------------------------------------------
(SEGUIR ARREGALNDO CONFORME PASA LA LETRA

Cuando la realidad se desvanece 666
en lo magico de lo etereo
mis alas se mezclaran 
con el horror de su interior
La belleza y el cristal
se quiebran al juntarse con el temor
y el miedo, a vivir eternamente...!!!

LA LA   SI SI  DO DO  SI SI  LA  (bis 4veces)

INTRO OTRAVEZ

SOLO (guitarra ritmica)
LA  SOL DO RE SI - (LA  SOL  FA  SOL LA) MI.//bis 3veces lo del parentesis..


EL REFLEJO DE LO ABSURDO...


Recorro mis sueños y ciego por el miedo 
                                    LA1   FA1 LA1 SOL1
no quiero encontrar, la llama en el cielo..

INSTRUMENTAL...FIN.

            
            
Suggest correction
Creating personal tab
Creating personal tab
You can edit any tab online and save it as your Personal.

You can edit, replace or remove any tab part or add personal notes – all changes will be seen only by you.

Personal tabs can be accessed anytime from any device, even offline.
Learn more »
Give kudos to tab author, rate the tab!
1 2 3 4 5
comments
print report bad tab
guest
Wanna post a correction for this tab? Suggest correction