Oops, an error
Loading. Please wait.
We have an official Africa tab made by UG professional guitarists. Check out the tab »
×
by Toto
901 views 12 this week
no commentswrite comment
1 2 3 4 5
2 more votes to show rating
add to favorites
×
Save as Personal and add changes to this tab that will be seen only by you. Learn more ›
×
You can save this tab as Personal to edit and correct it or add notes. All changes will be seen only by you. Learn more »
launch autoscroll
font size
0
reset
how to read this tab
guitar tuner
backing track
0:00
0:00
edit
Autoscroll
slow
fast
+/-
esc
set tempo
stop
[Verse]

e|---------------------------------------------------------------------------|
B|---------------------------------------------------------------------------|
G|---------------------------------------------------------------------------|
D|------------------------------------8---9----------------------------------|
A|--9---9---9---9------9----9---11-----------------------------------------7-|
E|---------------------------------------------------------------11---11-----|

e|---------------------------------------------------------------------------|
B|---------------------------------------------------------------------------|
G|---------------------------------------------------------------------------|
D|---------------------------------------------------------------------------|
A|--9---9---7---7------------------------------------------------------------|
E|------------------11---9---7---7---9---11---7---9--------------------------|

e|---------------------------------------------------------------------------|
B|---------------------------------------------------------------------------|
G|---------------------------------------------------------------------------|
D|------------------------------------8---9----------------------------------|
A|--9---9---9---9-------9---11---------------------------------------------7-|
E|---------------------------------------------------------------11---11-----|

e|---------------------------------------------------------------------------|
B|---------------------------------------------------------------------------|
G|---------------------------------------------------------------------------|
D|---------------------------------------------------------------------------|
A|--9---9---7---7------------------------------------------------------------|
E|------------------11---9---7---7---9---11---7---9--------------------------|

e|---------------------------------------------------------------------------|
B|---------------------------------------------------------------------------|
G|---------------------------------------------------------------------------|
D|------------------------------------8---9----------------------------------|
A|--9---9---9---9------9----9---11-----------------------------------------7-|
E|----------------------------------------------------------11---11---11-----|

e|---------------------------------------------------------------------------|
B|---------------------------------------------------------------------------|
G|---------------------------------------------------------------------------|
D|---------------------------------------------------------------------------|
A|--9---9---7---7------------------------------------------------------------|
E|------------------11---9---7---7---9---11---7---9--------------------------|

e|---------------------------------------------------------------------------|
B|---------------------------------------------------------------------------|
G|-------------------------------------------------------------------------9-|
D|------------------------------------8---9---------------------13---13------|
A|--9---9---9---9-----------9---11-------------------------------------------|
E|---------------------------------------------------------------------------|

e|---------------------------------------------------------------------------|
B|---------------------------------------------------------------------------|
G|---11---11---9---9--------9------------------------------------------------|
D|---------------------13----------------------------------------------------|
A|---------------------------------------------------------------------------|
E|---------------------------------------------------------------------------|


[Chorus]

e|---------------------------------------------------------------------------|
B|--10-10-10-10-10-10-10-10-10-10-10-----------------------------------------|
G|-------------------------------------13-13---------------------------------|
D|---------------------------------------------------------------------------|
A|---------------------------------------------------------------------------|
E|---------------------------------------------------------------------------|

e|---------------------------------------------------------------------------|
B|--10-10-10-10-10-10-10-10-10-10-10-10--------------------------------------|
G|---------------------------------------13-13-------------------------------|
D|---------------------------------------------------------------------------|
A|---------------------------------------------------------------------------|
E|---------------------------------------------------------------------------|

e|---------------------------------------------------------------------------|
B|--10-10-10-10-10-10-10-----------------------------------------------------|
G|------------------------13-13----------------------------------------------|
D|---------------------------------------------------------------------------|
A|---------------------------------------------------------------------------|
E|---------------------------------------------------------------------------|

e|---------------------------------------------------------------------------|
B|--10-10-10-10-10-10-10-10-10-10-10--------------------------10-------------|
G|------------------------------------9---13---11---9---13-------13--11--9---|
D|-------------------------------------------------------------------------11|
A|---------------------------------------------------------------------------|
E|---------------------------------------------------------------------------|


[Guitar 2 Chorus]

e|---------------------------------------------------------------------------|
B|---------------------------------------------------------------------------|
G|---------------------------------------------------------------------------|
D|---------------------------------------------------------------------------|
A|---------------------------------------------------------------------------|
E|---------------------------------------------------------------------------|

e|---------------------------------------------------------------------------|
B|---------------------------------------------------------------------------|
G|--6--6--6--6--6--7--7--7--6--6--6--6--9--9---------------------------------|
D|---------------------------------------------------------------------------|
A|---------------------------------------------------------------------------|
E|---------------------------------------------------------------------------|

e|---------------------------------------------------------------------------|
B|---------------------------------------------------------------------------|
G|------------11--11--9------------------------------------------------------|
D|--7--7--7--------------11--9-----------------------------------------------|
A|---------------------------------------------------------------------------|
E|---------------------------------------------------------------------------|

e|---------------------------------------------------------------------------|
B|---------------------------------------------------------------------------|
G|----------------------------------------9----------------------------------|
D|--7--7--7--7--7--7--7--7--7--7--7------------------------------------------|
A|------------------------------------7--------------------------------------|
E|---------------------------------------------------------------------------|


            
            
Suggest correction
Creating personal tab
Creating personal tab
You can edit any tab online and save it as your Personal.

You can edit, replace or remove any tab part or add personal notes – all changes will be seen only by you.

Personal tabs can be accessed anytime from any device, even offline.
Learn more »
Give kudos to tab author, rate the tab!
1 2 3 4 5
comments
print report bad tab
guest
Wanna post a correction for this tab? Suggest correction