Oops, an error
Loading. Please wait.

Angel Dont Cry tab

version 1
version 1

Whole song

Interactive

by Toto
31 views 6 this week
no commentswrite comment
1 2 3 4 5
3 more votes to show rating
add to favorites
×
Save as Personal and add changes to this tab that will be seen only by you. Learn more ›
×
You can save this tab as Personal to edit and correct it or add notes. All changes will be seen only by you. Learn more »
launch autoscroll
font size
0
reset
how to read this tab
guitar tuner
edit
Autoscroll
slow
fast
+/-
esc
set tempo
stop
[Intro]
e|-----------------------------------------------3-3-2--332-------------|
B|-----------------------------------------------3-3-3--333-------------|
G|-----4-2------------------------------4-2------2-2-2--222-------------|
D|-----0-0-----5-----4------------------0-0-----------------------------|
A|-2-2-----2-2---222---2-2-2-2--222-0-2-----2-2-------------------------|
E|----------------------------------------------------------------------|

e|-----------------------------------------------3-33-2--332------------|
B|-----------------------------------------------3-33-3--333------------|
G|-----4-2------------------------------4-2------2-22-2--222------------|
D|-----0-0-----5-----4------------------0-0-----------------------------|
A|-2-2-----2-2---222---2-2-2-2--222-0-2-----2-2-------------------------|
E|----------------------------------------------------------------------|

e|-----------------------------------------------3-3-2--332-------------|
B|-----------------------------------------------3-3-3--333-------------|
G|-----4-2------------------------------4-2------2-2-2--222-------------|
D|-----0-0-----5-----4------------------0-0-----------------------------|
A|-2-2-----2-2---222---2-2-2-2--222-0-2-----2-2-------------------------|
E|----------------------------------------------------------------------|

e|-----------------------------------------------3-333------------------|
B|-----------------------------------------------3-333------------------|
G|-----4-2------------------------------4-2------2-222------------------|
D|-----0-0-----5-----4------------------0-0-----------------------------|
A|-2-2-----2-2---222---2-2-2-2--222-0-2-----2-2-------------------------|
E|----------------------------------------------------------------------|

[Verse]
e|------------------------------------------------------------------|
B|------------------------------------------------------------------|
G|-----4-2-----------------------------4-2--------------------------|
D|-----0-0-----5-----4-----------------0-0-----5-----4--------------|
A|-2-2-----2-2---222---2-2-2-2-222-0-2-----2-2---222---2-2-2-2-222--|
E|------------------------------------------------------------------|

e|------------------------------------------------------------------|
B|----------------------------------3-----2-------------------------|
G|-----4-2--------------------------0-----0-----4-----2-------------|
D|-----0-0-----5-----4--------------------------0-----0--2-4-2------|
A|------------------------------------0-0---0-0---0-0----------4----|
E|-3-3-----3-3---333---3-3-3-3-333----------------------------------|

e|------------------------------------------------------------------|
B|------------------------------------------------------------------|
G|-----4-2-----------------------------4-2--------------------------|
D|-----0-0-----5-----4-----------------0-0-----5-----4--------------|
A|-2-2-----2-2---222---2-2-2-2-222-0-2-----2-2---222---2-2-2-2-222--|
E|------------------------------------------------------------------|

e|------------------------------------------------------------------|
B|----------------------------------3-----2-------------------------|
G|-----4-2--------------------------2-----2-----4-----2-------------|
D|-----0-0-----5-----4--------------------------0-----0-------------|
A|------------------------------------0-0---0-0---0-0---------------|
E|-3-3-----3-3---333---3-3-3-3-333-----------------------2/5--4-----|

[Pre-Chorus]
e|-------------------------------------------------------------------|
B|-------------------------------------------------------------------|
G|-------------------------------------------------------------------| (x2)
D|-------------------------------------------------7-----------------|
A|-4-------------------------------7---------------5-5-5-5-5-5-5-5---|
E|-2-2-2-2-2-2-2-2-2-2-2-2-2-2-2-2-4-4-4-4-4-4-4-4-------------------|

e|-------------------------------------------------------------------|
B|-------------------------------------------------------------------|
G|-----12--121212-------12--121212-------12--121212-------12--121212-|
D|-121212--121212---121212--121212---121212--121212---121212--121212-|
A|-9-9-10--101010---9-9-10--101010---9-9-10--101010---9-9-10--101010-|
E|-------------------------------------------------------------------|

[Chorus]
e|-----------------------------------------------3-3-2--332-------------|
B|-----------------------------------------------3-3-3--333-------------|
G|-----4-2------------------------------4-2------2-2-2--222-------------|
D|-----0-0-----5-----4------------------0-0-----------------------------|
A|-2-2-----2-2---222---2-2-2-2--222-0-2-----2-2-------------------------|
E|----------------------------------------------------------------------|

e|-----------------------------------------------3-33-2--332------------|
B|-----------------------------------------------3-33-3--333------------|
G|-----4-2------------------------------4-2------2-22-2--222------------|
D|-----0-0-----5-----4------------------0-0-----------------------------|
A|-2-2-----2-2---222---2-2-2-2--222-0-2-----2-2-------------------------|
E|----------------------------------------------------------------------|

e|-----------------------------------------------3-3-2--332-------------|
B|-----------------------------------------------3-3-3--333-------------|
G|-----4-2------------------------------4-2------2-2-2--222-------------|
D|-----0-0-----5-----4------------------0-0-----------------------------|
A|-2-2-----2-2---222---2-2-2-2--222-0-2-----2-2-------------------------|
E|----------------------------------------------------------------------|

e|-----------------------------------------------3-333------------------|
B|-----------------------------------------------3-333------------------|
G|-----4-2------------------------------4-2------2-222------------------|
D|-----0-0-----5-----4------------------0-0-----------------------------|
A|-2-2-----2-2---222---2-2-2-2--222-0-2-----2-2-------------------------|
E|----------------------------------------------------------------------|

[Bridge]
e|-----------------------------------------------3-3-2--332-------------|
B|-----------------------------------------------3-3-3--333-------------|
G|-----4-2------------------------------4-2------2-2-2--222-------------|
D|-----0-0-----5-----4------------------0-0-----------------------------|
A|-2-2-----2-2---222---2-2-2-2--222-0-2-----2-2-------------------------|
E|----------------------------------------------------------------------|

e|-----------------------------------------------3-33-2--332------------|
B|-----------------------------------------------3-33-3--333------------|
G|-----4-2------------------------------4-2------2-22-2--222------------|
D|-----0-0-----5-----4------------------0-0-----------------------------|
A|-2-2-----2-2---222---2-2-2-2--222-0-2-----2-2-------------------------|
E|----------------------------------------------------------------------|

e|-----------------------------------------------3-3-2--332-------------|
B|-----------------------------------------------3-3-3--333-------------|
G|-----4-2------------------------------4-2------2-2-2--222-------------|
D|-----0-0-----5-----4------------------0-0-----------------------------|
A|-2-2-----2-2---222---2-2-2-2--222-0-2-----2-2-------------------------|
E|----------------------------------------------------------------------|

e|-----------------------------------------------3-333------------------|
B|-----------------------------------------------3-333------------------|
G|-----4-2------------------------------4-2------2-222------------------|
D|-----0-0-----5-----4------------------0-0-----------------------------|
A|-2-2-----2-2---222---2-2-2-2--222-0-2-----2-2-------------------------|
E|----------------------------------------------------------------------|

e|---------------------|
B|-7h9--7--------------|
G|-7h9--7--------------| (during the bridge)
D|-7h9--7--7-9vib------|
A|---------------------|
E|---------------------|

[Pre-Solo]
e|----------------------------------------------------------------------|
B|----------------------------------------------------------------------|
G|----------------------------------------------------------------------|
D|----------------------------------------------------------------------|
A|-2-2-2-2-2-2-2-2-2-2-2-2-2-2-2-2-2-2-2-2-2-2-2-2-2-2-2-2-2-2-2-2------|
E|----------------------------------------------------------------------|

e|----------------------------------------------------------------------|
B|----------------------------------------------------------------------|
G|----------------------------------------------------------------------|
D|----------------------------------------------------------------------|
A|----------------------------------------------------------------------|
E|-3-3-3-3-3-3-3-3-3-3-3-3-3-3-3-3-5-5-5-5-5-5-5-5-5-5-5-5-5-5-5-5------|

[Solo]
e|-17-(19)-(17)---------------------------------------------------------|
B|------------------------17-----15-(17)-(15)---------------------------|
G|----------------16-(18)-----14-----------------14-(16)-(14)-----------|
D|--------------------------------------------16------------------------|
A|----------------------------------------------------------------------|
E|----------------------------------------------------------------------|

e|----------------------------------------------------------------------|
B|-15----17-15-(17)-(15)------------------------------------------------|
G|----14------------------16-14-16-14--14-(16)-(14)---------------------|
D|---------------------------------------------------16-14-16-14-16-----|
A|----------------------------------------------------------------------|
E|----------------------------------------------------------------------|

e|----------------------------------------------------------------------|
B|-------------------------------------12/14--15-14-17-14--12/14--------|
G|----------------------------------------------------------------------|
D|-12h14p12h13p12h14-12-11-(12)-(11)------------------------------------|
A|--------------------------wh------------------------------------------|
E|----------------------------------------------------------------------|

e|----------------------------------------15-14-17-14-17-(19)-----------|
B|-15-14-17-14--12/14-15-14-17-14--12/14--------------------------------|
G|----------------------------------------------------------------------|
D|----------------------------------------------------------------------|
A|----------------------------------------------------------------------|
E|----------------------------------------------------------------------|

e|-15-17-(19)-17-(19)---------------14-15-17-15-14----------------------|
B|-----------------vib-----14-15-17----------------17-15-14-------------|
G|----------------------------------------------------------16-14-------|
D|----------------------------------------------------------------16-14-|
A|----------------------------------------------------------------------|
E|----------------------------------------------------------------------|

e|----------------------------------------------------------------------|
B|----------------17----------------------------------------------------|
G|----14-16-(18)-----16-(18)--------------------------------------------|
D|-16---------------------vib-------------------------------------------|
A|----------------------------------------------------------------------|
E|----------------------------------------------------------------------|



************************************

| /    Slide up
| h    Hammer-on
| (n)  Ghost note
| p    Pull-off
| vib  
| wh   

************************************

            
            
Suggest correction
Creating personal tab
Creating personal tab
You can edit any tab online and save it as your Personal.

You can edit, replace or remove any tab part or add personal notes – all changes will be seen only by you.

Personal tabs can be accessed anytime from any device, even offline.
Learn more »
Give kudos to tab author, rate the tab!
1 2 3 4 5
comments
print report bad tab
guest
You may want to rate the tab now too:
select rating
Wanna post a correction for this tab? Suggest correction