Oops, an error
Loading. Please wait.

Carmen Bass Tab

version 1
version 1

Whole song

Interactive

by Toto
1,691 views 1 this week
no commentswrite comment
1 2 3 4 5
3 more votes to show rating
add to favorites
launch autoscroll
font size
0
reset
guitar tuner
Autoscroll
slow
fast
+/-
esc
set tempo
stop
Help us to improve Ultimate-Guitar.com Take our survey!
×
Difficulty
intermediate
-------------------------------------------------------------------------------
			     SONG NAME - Band Name
------------------------------------------------------------------------------
Tabbed By : Toto 
e-mail: michart56gmail.com
Tuning: 4 strings bass fingered
                                   CARMEN
Moderately fast 153 
Intro play 4x 

G|----------------------------------|
D|-2--------------------------2-2-5-|
A|---2----------------2-2-5-5-------|
E|-----3-3--------5-----------------|

Verse play 4x

G|---------------------------------|---------------------------------|
D|---------------------------------|---------------------------------|
A|-0-0-0-0-0-0-0---0-0-0-0-0-0-0-3-|-3-3-3-3-3-3-3-3-3-3-3-3-3-3-3-3-|
E|---------------0-----------------|---------------------------------|

Chorus (intro)

Verse 

Instrumental 

G|------------------------------------------------------------|
D|-0---0---0---0---0---0-0-0-0---0------0---------------------|
A|-----------0--------------------------------3---------------|
E|----------------------------------------------------1-1-1-1-|

G|------------------------------------------------------------|
D|------------------------------------------------------------|
A|--------------------------------------------------------2-2-|
E|-1-1-1-1-1-1-1-1-1-1-1-1-1-1-1-1-1-1-1---1-1-1-1-1-1-1------|

G|-------------------------------------------0-2-4-5-6-7------|
D|-----------------------------------0---2-4------------------|
A|-2-2-2-2-2-2-2-2-2-2-2-2-2-2---3-4--------------------------|
E|-----------------------------4------------------------------| 

1 tact break

  "--" - 1 note "eight"
verse 3x 
chorus x 12 
outro chorus x ...

| /  slide up
| \  slide down
| h  hammer-on
| p  pull-off
| ~  vibrato
| +  harmonic
| x  Mute note
===============================================================================
Suggest correction
Give kudos to tab author, rate the tab!
1 2 3 4 5
comments
print report bad tab
guest
You may want to rate the tab now too:
select rating
Wanna post a correction for this tab? Suggest correction