Oops, an error
Loading. Please wait.

Caught In The Balance bass

version 1
version 1

Whole song

Interactive

by Toto
58 views 1 this week
no commentswrite comment
1 2 3 4 5
2 more votes to show rating
add to favorites
×
Save as Personal and add changes to this tab that will be seen only by you. Learn more ›
×
You can save this tab as Personal to edit and correct it or add notes. All changes will be seen only by you. Learn more »
launch autoscroll
font size
0
reset
guitar tuner
edit
Autoscroll
slow
fast
+/-
esc
set tempo
stop
Toto - Caught in the balance (Bass)
(Video: https://www.youtube.com/watch?v=z2p3eBIEvHw)

[intro]
G||--------------------------------|--------------------------------|
D||*-------------------------------|--------------------------------|
A||--------------------------------|--------------------------------|
E||*---5-5-5---5-------------------|------------------------3---5---|
B||--------------------------------|6---6-6-6---6-------------------|

G |--------------------------------|--------------------------------||
D |--------------------------------|-------------------------------*||
A |--------------------------------|--------------------------------|| 4x
E |--------------------------------|----------------------------3--*||
B |----5-5-5---5-------------------|5-5-5---5---5-------3-3-6-------||

[verse]
G||--------------------------------|--------------------------------|
D||*-------------------------------|--------------------------------|
A||--------------------------------|--------------------------------|
E||*---5---5---5---5---5---5---5---|--------------------------------|
B||--------------------------------|6---6---6---6---6---6---6---6---|

G |--------------------------------|--------------------------------|
D |--------------------------------|--------------------------------|
A |--------------------------------|--------------------------------|
E |--------------------------------|--------------------------------|
B |3---3---3---3---3---3---3---3---|3---3---3---3---3---3---3---3---|

G |--------------------------------|--------------------------------|
D |--------------------------------|--------------------------------|
A |--------------------------------|--------------------------------|
E |5---5---5---5---5---5---5---5---|--------------------------------|
B |--------------------------------|6---6---6---6---6---6---6---6---|

G |--------------------------------|--------------------------------||
D |--------------------------------|-------------------------------*||
A |--------------------------------|--------------------------------|| 3x
E |--------------------------------|----6---6---6---6---6---6---6--*||
B |3---3---3---3---3---3---3---3---|3-------------------------------||

[bridge]
G |--------------------------------|--------------------------------|
D |--------------------------------|--------------------------------|
A |--------------------------------|--------------------------------|
E |--------------------------------|3---3---3---3---3---3---3---3---|
B |6---6---6---6---6---6---6---6---|--------------------------------|

G |--------------------------------|--------------------------------|
D |--------------------------------|--------------------------------|
A |6---6---6---6---6-------6---6---|6---6---6---6---6---5---3-------|
E |--------------------6-----------|----------------------------6\--|
B |--------------------------------|--------------------------------|

G |--------------------------------|--------------------------------|
D |--------------------------------|--------------------------------|
A |--------------------------------|--------------------------------|
E |--------------------------------|3---3---3---3---3---3---3---3---|
B |6---6---6---6---6---6---6---6---|--------------------------------|

G |--------------------------------|--------------------------------|
D |--------------------------------|--------------------------------|
A |6---6---6---6---6---6---6---6---|----6---8\----------------------|
E |--------------------------------|----------------6---8\----------|
B |--------------------------------|----------------------------3---|


G |--------------------------------|--------------------------------|
D |--------------------------------|--------------------------------|
A |--------------------5-----------|--------------------5-------5---|
E |----------------5---------------|----------------5---------------|
B |--------3-----3-------------3---|3-------3-----3-----------------|

G |--------------------------------|--------------------------------|
D |--------------------------------|--------------------------------|
A |3-------3-----3-----3-------1---|--------1-----1-1---0-----------|
E |----------------3---------------|----1-------------------3---1---|
B |--------------------------------|--------------------------------|

G |--------------------------------|--------------------------------|
D |--------------------------------|--------------------------------|
A |--------------------5-----------|--------------------5-----------|
E |----------------5---------------|----------------5---------------|
B |--------3-----3-------------3---|3-------3-----3-------------3---|

G |--------------------------------|--------------------------------|
D |--------------------------------|--------------------------------|
A |--------------------3-------3---|----3---1-------1---------------|
E |----------------3---------------|------------3-------3---1-------|
B |1-------1-----1-----------------|----------------------------3---|

G |--------------------------------|--------------------------------|
D |--------------------------------|--------------------------------|
A |--------------------5-----------|--------------------5-------5---|
E |----------------5---------------|----------------5---------------|
B |--------3-----3-------------3---|3-------3-----3-----------------|

G |--------------------------------|--------------------------------|
D |--------------------------------|--------------------------------|
A |--------------------3-------1---|--------1-----1-1---0-----------|
E |----------------3---------------|----1-------------------3---1---|
B |1-------1-----1-----------------|--------------------------------|

G |--------------------------------|--------------------------------|
D |--------------------------------|--------------------------------|
A |--------------------------------|--------------------------------|
E |1---1---1---1---1---1---1---1---|3---3---3---3---3---3---3---3---|
B |--------------------------------|--------------------------------|

G |--------------------------------|--------------------------------|
D |--------------------------------|--------------------------------|
A |--------------------------------|--------------------------------|
E |5---5---5---5---5---5---5---5---|--------------------------------|
B |--------------------------------|6---6---6---6---6---6---6---6---|

G |--------------------------------|--------------------------------|
D |--------------------------------|--------------------------------|
A |--------------------------------|--------------------------------|
E |--------------------------------|--------------------------------|
B |3\------------------------------|--------------------------------|

[verse]
G||--------------------------------|--------------------------------|
D||*-------------------------------|--------------------------------|
A||--------------------------------|--------------------------------|
E||*---5---5---5---5---5---5---5---|--------------------------------|
B||--------------------------------|6---6---6---6---6---6---6---6---|

G |--------------------------------|--------------------------------|
D |--------------------------------|--------------------------------|
A |--------------------------------|--------------------------------|
E |--------------------------------|--------------------------------|
B |3---3---3---3---3---3---3---3---|3---3---3---3---3---3---3---3---|

G |--------------------------------|--------------------------------|
D |--------------------------------|--------------------------------|
A |--------------------------------|--------------------------------|
E |5---5---5---5---5---5---5---5---|--------------------------------|
B |--------------------------------|6---6---6---6---6---6---6---6---|

G |--------------------------------|--------------------------------||
D |--------------------------------|-------------------------------*||
A |--------------------------------|--------------------------------|| 2x
E |--------------------------------|----6---6---6---6---6---6---6--*||
B |3---3---3---3---3---3---3---3---|3-------------------------------||

[bridge]
G |--------------------------------|--------------------------------|
D |--------------------------------|--------------------------------|
A |--------------------------------|--------------------------------|
E |--------------------------------|3---3---3---3---3---3---3---3---|
B |6---6---6---6---6---6---6---6---|--------------------------------|

G |--------------------------------|--------------------------------|
D |--------------------------------|--------------------------------|
A |6---6---6---6---6-------6---6---|6---6---6---6---6---5---3-------|
E |--------------------6-----------|----------------------------6\--|
B |--------------------------------|--------------------------------|

G |--------------------------------|--------------------------------|
D |--------------------------------|--------------------------------|
A |--------------------------------|--------------------------------|
E |--------------------------------|3---3---3---3---3---3---3---3---|
B |6---6---6---6---6---6---6---6---|--------------------------------|

G |--------------------------------|--------------------------------|
D |--------------------------------|--------------------------------|
A |6---6---6---6---6---6---6---6---|----6---8\----------------------|
E |--------------------------------|----------------6---8\----------|
B |--------------------------------|----------------------------3---|


G |--------------------------------|--------------------------------|
D |--------------------------------|--------------------------------|
A |--------------------5-----------|--------------------5-------5---|
E |----------------5---------------|----------------5---------------|
B |--------3-----3-------------3---|3-------3-----3-----------------|

G |--------------------------------|--------------------------------|
D |--------------------------------|--------------------------------|
A |3-------3-----3-----3-------1---|--------1-----1-1---0-----------|
E |----------------3---------------|----1-------------------3---1---|
B |--------------------------------|--------------------------------|

G |--------------------------------|--------------------------------|
D |--------------------------------|--------------------------------|
A |--------------------5-----------|--------------------5-----------|
E |----------------5---------------|----------------5---------------|
B |--------3-----3-------------3---|3-------3-----3-------------3---|

G |--------------------------------|--------------------------------|
D |--------------------------------|--------------------------------|
A |--------------------3-------3---|----3---1-------1---------------|
E |----------------3---------------|------------3-------3---1-------|
B |1-------1-----1-----------------|----------------------------3---|

G |--------------------------------|--------------------------------|
D |--------------------------------|--------------------------------|
A |--------------------5-----------|--------------------5-------5---|
E |----------------5---------------|----------------5---------------|
B |--------3-----3-------------3---|3-------3-----3-----------------|

G |--------------------------------|--------------------------------|
D |--------------------------------|--------------------------------|
A |--------------------3-------1---|--------1-----1-1---0-----------|
E |----------------3---------------|----1-------------------3---1---|
B |1-------1-----1-----------------|--------------------------------|

G |--------------------------------|--------------------------------|
D |--------------------------------|--------------------------------|
A |--------------------------------|--------------------------------|
E |1---1---1---1---1---1---1---1---|3---3---3---3---3---3---3---5---|
B |--------------------------------|--------------------------------|

[break]
G||--------------------------------||     |--------------------------------|
D||*------------------------------*||     |--------------------------------|
A||--------------------------------|| 7x  |--------------------------------|
E||*------------------------------*||     |--------------------------3-4-5-|
B||--------------------------------||     |--------------------------------|

G |--------------------------------|--------------------------------|
D |--------------------------------|--------------------------------|
A |--------7-----------------------|--------------------------------|
E |5---5-------5-------------------|----5-----------------------5---|
B |--------------------------------|--------------------------------|

G |--------------------------------|--------------------------------|
D |--------------------------------|--------------------------------|
A |--------------------------------|--------------------------------|
E |--------------------3-----------|--------------------------3-4-5-|
B |--------------------------------|--------------------------------|

G |--------------------------------|--------------------------------|
D |--------------------------------|--------------------------------|
A |--------7-----------------------|----3-----------------------5---|
E |5---5-------5-------------------|--------------------------------|
B |--------------------------------|--------------------------------|

G |--------------------------------|--------------------------------|
D |--------------------------------|--------------------------------|
A |--------------------------------|--------------------------------|
E |----------------------------5---|------------------------5\------|
B |--------------------------------|--------------------------------|

[verse]
G||--------------------------------|--------------------------------|
D||*-------------------------------|--------------------------------|
A||--------------------------------|--------------------------------|
E||*---5---5---5---5---5---5---5---|--------------------------------|
B||--------------------------------|6---6---6---6---6---6---6---6---|

G |--------------------------------|--------------------------------|
D |--------------------------------|--------------------------------|
A |--------------------------------|--------------------------------|
E |--------------------------------|--------------------------------|
B |3---3---3---3---3---3---3---3---|3---3---3---3---3---3---3---3---|

G |--------------------------------|--------------------------------|
D |--------------------------------|--------------------------------|
A |--------------------------------|--------------------------------|
E |5---5---5---5---5---5---5---5---|--------------------------------|
B |--------------------------------|6---6---6---6---6---6---6---6---|

G |--------------------------------|--------------------------------||
D |--------------------------------|-------------------------------*||
A |--------------------------------|--------------------------------|| 2x
E |--------------------------------|----6---6---6---6---6---6---6--*||
B |3---3---3---3---3---3---3---3---|3-------------------------------||

[bridge]
G |--------------------------------|--------------------------------|
D |--------------------------------|--------------------------------|
A |--------------------------------|--------------------------------|
E |--------------------------------|3---3---3---3---3---3---3---3---|
B |6---6---6---6---6---6---6---6---|--------------------------------|

G |--------------------------------|--------------------------------|
D |--------------------------------|--------------------------------|
A |6---6---6---6---6-------6---6---|6---6---6---6---6---5---3-------|
E |--------------------6-----------|----------------------------6\--|
B |--------------------------------|--------------------------------|

G |--------------------------------|--------------------------------|
D |--------------------------------|--------------------------------|
A |--------------------------------|--------------------------------|
E |--------------------------------|3---3---3---3---3---3---3---3---|
B |6---6---6---6---6---6---6---6---|--------------------------------|

G |--------------------------------|--------------------------------|
D |--------------------------------|--------------------------------|
A |6---6---6---6---6---6---6---6---|----6---8\----------------------|
E |--------------------------------|----------------6---8\----------|
B |--------------------------------|----------------------------3---|


G |--------------------------------|--------------------------------|
D |--------------------------------|--------------------------------|
A |--------------------5-----------|--------------------5-------5---|
E |----------------5---------------|----------------5---------------|
B |--------3-----3-------------3---|3-------3-----3-----------------|

G |--------------------------------|--------------------------------|
D |--------------------------------|--------------------------------|
A |3-------3-----3-----3-------1---|--------1-----1-1---0-----------|
E |----------------3---------------|----1-------------------3---1---|
B |--------------------------------|--------------------------------|

G |--------------------------------|--------------------------------|
D |--------------------------------|--------------------------------|
A |--------------------5-----------|--------------------5-----------|
E |----------------5---------------|----------------5---------------|
B |--------3-----3-------------3---|3-------3-----3-------------3---|

G |--------------------------------|--------------------------------|
D |--------------------------------|--------------------------------|
A |--------------------3-------3---|----3---1-------1---------------|
E |----------------3---------------|------------3-------3---1-------|
B |1-------1-----1-----------------|----------------------------3---|

G |--------------------------------|--------------------------------|
D |--------------------------------|--------------------------------|
A |--------------------5-----------|--------------------5-------5---|
E |----------------5---------------|----------------5---------------|
B |--------3-----3-------------3---|3-------3-----3-----------------|

G |--------------------------------|--------------------------------|
D |--------------------------------|--------------------------------|
A |--------------------3-------1---|--------1-----1-1---0-----------|
E |----------------3---------------|----1-------------------3---1---|
B |1-------1-----1-----------------|--------------------------------|

G |--------------------------------|--------------------------------|
D |--------------------------------|--------------------------------|
A |--------------------------------|--------------------------------|
E |1---1---1---1---1---1---1---1---|3---3---3---3---3---3---3-------|
B |--------------------------------|----------------------------3---|


G |--------------------------------|--------------------------------|
D |--------------------------------|--------------------------------|
A |--------------------5-----------|--------------------5-------5---|
E |----------------5---------------|----------------5---------------|
B |--------3-----3-------------3---|3-------3-----3-----------------|

G |--------------------------------|--------------------------------|
D |--------------------------------|--------------------------------|
A |3-------3-----3-----3-------1---|--------1-----1-1---0-----------|
E |----------------3---------------|----1-------------------3---1---|
B |--------------------------------|--------------------------------|

G |--------------------------------|--------------------------------|
D |--------------------------------|--------------------------------|
A |--------------------5-----------|--------------------5-----------|
E |----------------5---------------|----------------5---------------|
B |--------3-----3-------------3---|3-------3-----3-------------3---|

G |--------------------------------|--------------------------------|
D |--------------------------------|--------------------------------|
A |--------------------3-------3---|----3---1-------1---------------|
E |----------------3---------------|------------3-------3---1-------|
B |1-------1-----1-----------------|----------------------------3---|

G |--------------------------------|--------------------------------|
D |--------------------------------|--------------------------------|
A |--------------------5-----------|--------------------5-------5---|
E |----------------5---------------|----------------5---------------|
B |--------3-----3-------------3---|3-------3-----3-----------------|

G |--------------------------------|--------------------------------|
D |--------------------------------|--------------------------------|
A |--------------------3-------1---|--------1-----1-1---0-----------|
E |----------------3---------------|----1-------------------3---1---|
B |1-------1-----1-----------------|--------------------------------|

G |--------------------------------|--------------------------------|
D |--------------------------------|--------------------------------|
A |--------------------------------|--------------------------------|
E |1---1---1---1---1---1---1---1---|3---3---3---3---3---3---3---5---|
B |--------------------------------|--------------------------------|

[ending]  
G||--------------------------------||
D||*------------------------------*||
A||--------------------------------|| Repeat until end
E||*---5---5---5---5---5---5---5--*||
B||--------------------------------||

************************************
| \   Slide down
| ||* Repeat start
| *|| Repeat end
************************************

            
            
Suggest correction
Creating personal tab
Creating personal tab
You can edit any tab online and save it as your Personal.

You can edit, replace or remove any tab part or add personal notes – all changes will be seen only by you.

Personal tabs can be accessed anytime from any device, even offline.
Learn more »
Give kudos to tab author, rate the tab!
1 2 3 4 5
comments
print report bad tab
guest
You may want to rate the tab now too:
select rating
Wanna post a correction for this tab? Suggest correction