Oops, an error
Loading. Please wait.

English Eyes bass

by Toto
1,776 views 1 this week
no commentswrite comment
1 2 3 4 5
3 more votes to show rating
add to favorites
×
Save as Personal and add changes to this tab that will be seen only by you. Learn more ›
×
You can save this tab as Personal to edit and correct it or add notes. All changes will be seen only by you. Learn more »
launch autoscroll
font size
0
reset
guitar tuner
edit
Autoscroll
slow
fast
+/-
esc
set tempo
stop
Author
-------------------------------------------------------------------------------
                             English Eyes - Toto
-------------------------------------------------------------------------------
Tabbed By : Geo1450 
e-mail: George@aoksafety.co.uk

Tuning: Standard

Guitar Intro: 4 bars

Repeat 4 times (starts a quaver before the bar)
G|-----|-------------------|----------------------|-------------------|---------------------|
D|-----|-------------------|----------------------|-------------------|---------------------|
A|-----|-----------5--5--7-|-7----10--10--9--9----|-----------5--5--7-|-7---10--10--9--9----|
E|---7-|-7--5--5-----------|--------------------7-|-7--5--5-----------|-------------------7-|


On the Fifth time play this
G|-------------------|----------------------|-------------------|-----------------------|
D|-------------------|----------------------|-------------------|-----------------------|
A|-----------5--5--7-|-7----10--10--9--9----|-----------5--5--7-|-7---10--10--12--12--5-|
E|-7--5--5-----------|--------------------7-|-7--5--5-----------|-----------------------|

Chorus

G|--------------|------------|---------------|------------|
D|--------------|------------|---------------|------------|
A|-5----------5-|-5----------|-2--0----------|-------0--5-|
E|-----3--3-----|-----5--5---|-------3--2--2-|-2--3-------|

G|--------------|------------|---------------|------------|
D|--------------|------------|---------------|------------|
A|-5----------5-|-5----------|-2--0----------|-------0----|
E|-----3--3-----|-----5--5---|-------3--2--2-|-2--3-----7-|

Verse

Repeat 4 times (starts a quaver before the bar)
G|-----|-------------------|----------------------|-------------------|---------------------|
D|-----|-------------------|----------------------|-------------------|---------------------|
A|-----|-----------5--5--7-|-7----10--10--9--9----|-----------5--5--7-|-7---10--10--9--9----|
E|---7-|-7--5--5-----------|--------------------7-|-7--5--5-----------|-------------------7-|


On the Fifth time play this
G|-------------------|----------------------|-------------------|-----------------------|
D|-------------------|----------------------|-------------------|-----------------------|
A|-----------5--5--7-|-7----10--10--9--9----|-----------5--5--7-|-7---10--10--12--12--5-|
E|-7--5--5-----------|--------------------7-|-7--5--5-----------|-----------------------|

Chorus

G|--------------|------------|---------------|------------|
D|--------------|------------|---------------|------------|
A|-5----------5-|-5----------|-2--0----------|-------0--5-|
E|-----3--3-----|-----5--5---|-------3--2--2-|-2--3-------|

G|--------------|------------|---------------|---------|
D|--------------|------------|---------------|---------|
A|-5----------5-|-5----------|-2--0----------|-------0-|
E|-----3--3-----|-----5--5---|-------3--2--2-|-2--3----|




G|---------------|-----------|
D|---------------|-----------|
A|-2--0----------|-------0---|
E|-------3--2--2-|-2--3------|
                              3/4 bar 
G|---------------|-----------||---||
D|---------------|-----------||---||
A|-2--0----------|-------0---||-2-||
E|-------3--2--2-|-2--3------||---||

Repeat 11 times
G|---------------------|------------------|
D|---------------------|------------------|
A|--2--2---0--0--------|----------------5-|
E|----------------3--3-|--2--2---0--0-----|

                        2/4 bar   hold note  hold note                 hold note
G|--------------------||-------||-----|----|-----|----|----------|----|-----|----|
D|--------------------||-------||-----|----|-----|----|----------|----|-----|----|
A|--2--2---0--0-------||-------||-----|----|-----|----|----------|----|-----|----|
E|---------------3--3-||--2--2-||--0--|----|--0--|----|--5--5--5-|----|--0--|----|

  Hold note
G|-----|----|----------|----|----------|----|-----|-------|
D|-----|----|----------|----|----------|----|-----|-------|
A|-----|----|----------|----|----------|----|-----|-------|
E|--0--|----|--5--5--5-|----|--5--5--5-|----|--5--|-----7-|

Verse

Repeat 3 times (starts a quaver before the bar)
G|-----|-------------------|----------------------|-------------------|---------------------|
D|-----|-------------------|----------------------|-------------------|---------------------|
A|-----|-----------5--5--7-|-7----10--10--9--9----|-----------5--5--7-|-7---10--10--9--9----|
E|---7-|-7--5--5-----------|--------------------7-|-7--5--5-----------|-------------------7-|


On the Fifth time play this
G|-------------------|----------------------|-------------------|-----------------------|
D|-------------------|----------------------|-------------------|-----------------------|
A|-----------5--5--7-|-7----10--10--9--9----|-----------5--5--7-|-7---10--10--12--12--5-|
E|-7--5--5-----------|--------------------7-|-7--5--5-----------|-----------------------|

Chorus

Repeat 3 times
G|--------------|------------|---------------|------------|
D|--------------|------------|---------------|------------|
A|-5----------5-|-5----------|-2--0----------|-------0--5-|
E|-----3--3-----|-----5--5---|-------3--2--2-|-2--3-------|

G|--------------|------------|---------------|---------|
D|--------------|------------|---------------|---------|
A|-5----------5-|-5----------|-2--0----------|-------0-|
E|-----3--3-----|-----5--5---|-------3--2--2-|-2--3----|

G|---------------|-----------|
D|---------------|-----------|
A|-2--0----------|-------0---|
E|-------3--2--2-|-2--3------|

G|---------------|-----------|
D|---------------|-----------|
A|-2--0----------|-------0---|
E|-------3--2--2-|-2--3------|



Repeat and Fade
G|---------------------|------------------|
D|---------------------|------------------|
A|--2--2---0--0--------|----------------5-|
E|----------------3--3-|--2--2---0--0-----|
Suggest correction
Creating personal tab
Creating personal tab
You can edit any tab online and save it as your Personal.

You can edit, replace or remove any tab part or add personal notes – all changes will be seen only by you.

Personal tabs can be accessed anytime from any device, even offline.
Learn more »
Give kudos to tab author, rate the tab!
1 2 3 4 5
comments
print report bad tab
guest
You may want to rate the tab now too:
select rating
Wanna post a correction for this tab? Suggest correction