Oops, an error
Loading. Please wait.

Never Enough Tab

version 1
version 1

Whole song

Interactive

by Toto
2,277 views 3 this week
2 commentsread comments
1 2 3 4 5
3 more votes to show rating
add to favorites
×
Save as Personal and add changes to this tab that will be seen only by you. Learn more ›
×
You can save this tab as Personal to edit and correct it or add notes. All changes will be seen only by you. Learn more »
save as personal
new!
launch autoscroll
font size
0
reset
how to read this tab
guitar tuner
Autoscroll
slow
fast
+/-
esc
set tempo
stop
Submitted by Dennis N.v.D.

normal tuning

Intro
e------------------------------
B------------------------------
G-7-99-777-6-7---7-99-444-2-7/9 repeat 2 times
D-7-99-777-6-7-2-7-99-444-2-7/9
A-5-77-555-4-5-2-5-77-222-0-5/7
E--------------0---------------

e---------------
B---------------
G-7-99-777-6-7-- repeat 4 times
D-7-99-777-6-7-2
A-5-77-555-4-5-2
E--------------0

Chorus
e----------------------------------------------------------------------
B----------------------------------------------------------------------
G-44444444444444-22-----------------------44444444444444-55555555555555
D-44444444444444-22----2------------------44444444444444-55555555555555
A-22222222222222-00-3/4-4-2---2-----0-1-2-22222222222222-33333333333333
E--------------------------3/4-4-0-4-----------------------------------

Repeat Intro
Suggest correction
Give kudos to tab author, rate the tab!
1 2 3 4 5
comments
print report bad tab
2 comments total.
0 reply
madbouy 10 Dec 06, 2007 10:38 AM

isn't there a bridge in this song?

0 reply
n0r 311 Jul 10, 2013 03:31 AM

This may be more complete:

Intro:

e--------------------------------------------------
H--------------------------------------------------
G--7-9-9-----7-7-7-6--------7-9-9-----7-7-7-6------
D--7-9-9-----7-7-7-7-7-9----7-9-9-----7-7-7-7--7-9-
A--------------------7-7-----------------------5-7-
E---------7-9---------------------7-9--------------

x2, second time ends just on

D--9--
A--7--

Verse:
P.M.................................
e-----------------------------------------------------------
H-----------------------------------------------------------
G-------------------------------------7-9-9-----7-7-7-6-----
D-------------------------------------7-9-9-----7-7-7-7-7-9-
A-------------------------------------------------------7-7-
E--0-0-0-0-0-0-0-0-0-0-0-0-0-0-0-0-0-0-------7-9-----------

sometimes there are fills (1) and (2) where the 0 on E are.

(1) (2)
e---------- --0--
H---------- --0--
G---------- --0--
D---------- -----
A-------10- -----
E-0-6/7---- -----

Pre-chorus:

P.M.. . . . . . . . . . . . . . . .
e------------------------------------------------------0--
H------------------------------------------------------0--
G---------------------------------------------------------
D-----------------------------------------------------2---
A-----9-----9-----9-----9-----9-------7-----7--------2----
E-7-7-7-7-7-7-7-7-7-7-7-7-7-7-7-7-5-5-5-5-5-5-5-5-3/4-----

P.M.. . . . . . . . . . . . . . . . . . . .
e-------------------------------------------------------------------------
H-------------------------------------------------------------------------
G-------------------------------------------------------------------------
D-------------------------------------------------------------------------
A-----9-----9-----9-----9-----9-------10----10----------12-------12-12-12-
E-7-7-7-7-7-7-7-7-7-7-7-7-7-7-7-7-8-8-8-8-8-8-8-8-10-10-10-10-10-10-10-10-

Chorus is similar to Intro

Then comes Verse, Pre-chorus and Chorus again.

Bridge:

e--------------------
H--------------------
G--------------------
D--------------------
A------------------1-
E---3--5--0--3--5----

P.M. . .
e------------------------0-----0-----
H------------------------0-----0-----
G------------------------------------
D------------------------------------
A--2--5------------------------------
E--------5--3--5--3---0----0-0---0-0-


e-----------------------------------------
H-----------------------------------------
G-----------------------------------------
D-----------------------------------------
A--2--5---------------------------------1-
E--------5--3--5--3---0--3--5--0--3--5----

there comes solo

P.M. . .
e------------------------0-----0-----
H------------------------0-----0-----
G------------------------------------
D------------------------------------
A--2--5------------------------------
E--------5--3--5--3---0----0-0---0-0-

ending:

e---------------------------------------------------------------------
H---------------------------------------------------------------------
G---------------------------------------------------------------------
D---------------------------------------------------------------------
A--2--5------------------2---5----------------2---5-----------------2-
E--------5--3--5--3-------------5--3--5--3-----------5--3--5---0--3---

Then comes Pre-chorus, then Chorus.

Outro riff:

e-------------------------------
H-------------------------------
G-------------------------------
D--0--1--2-x-0--1--2-x-0--1--2--
A----------x---------x----------
E----------x---------x--------0-

fill which apears:

e-----------------------
H-----------------------
G--2h3--2--0------------
D------------2-0--------
A----------------2-0----
E-------------------3-0-

ending:

e-----------------------------------------------------------------
H-----------------------------------------------------------------
G--2h3--2--0-----------2h3--2--0----------2h3--2--0---------------
D------------2-0-----------------2-0----------------2-0---------2-
A----------------2-0-----------------2-0----------------2-0-----2-
E--------------------3-------------------3------------------3-0-0-

guest
Wanna post a correction for this tab? Suggest correction