Oops, an error
Loading. Please wait.

Festivalbini tab

by TotorRo
2,467 views 30 this week
1 commentread comment
1 2 3 4 5
x 3
add to favorites
×
Save as Personal and add changes to this tab that will be seen only by you. Learn more ›
×
You can save this tab as Personal to edit and correct it or add notes. All changes will be seen only by you. Learn more »
launch autoscroll
font size
0
reset
how to read this tab
guitar tuner
edit
Autoscroll
slow
fast
+/-
esc
set tempo
stop
[Part 1]

(Guitar 1)

e|---------------------------------------------------------------------|
B|---3-----------3-----3-----3---------3-----3-----3-----------3-----3-|
G|---2-----------2-----2-----2---------2-----2-----2-----------2-----2-|
D|---------------------------------------------------------------------|
A|---------------------------------------------------------------------|
D|-5-----------5-----4-----5---------5-----4-----0-----------2-----4---|

e|---------------------------------------------------------------------|
B|---3-----------3-----3-----3---------3-----3-----3-----------3-----3-|
G|---2-----------2-----2-----2---------2-----2-----2-----------2-----2-|
D|---------------------------------------------------------------------|
A|---------------------------------------------------------------------|
D|-5-----------5-----4-----5---------5-----4-----0-----------2-----4---|

e|---------------------------------------------------------------------|
B|---3-----------3-----3-----3---------3-----3-----3-----------3-----3-|
G|---2-----------2-----2-----2---------2-----2-----2-----------2-----2-|
D|---------------------------------------------------------------------|
A|---------------------------------------------------------------------|
D|-5-----------5-----4-----5---------5-----4-----0-----------2-----4---|


(Guitar 2)

e|----10-------12/14---9/10------10-------12\10-----9-----------------------7-----9-----|
B|-10-------------------------10--------------------------10-7---7/8---10---------------|
G|--------------------------------------------------------------------------------------|
D|--------------------------------------------------------------------------------------|
A|--------------------------------------------------------------------------------------|
D|--------------------------------------------------------------------------------------|

e|----10-------12/14---9/10------10-------12\10-----9------------------------------------|
B|-10-------------------------10--------------------------10-7---7-7-7-7-7-7-7-7-7-7-7-7-|
G|---------------------------------------------------------------7-7-7-7-7-7-7-7-7-7-7-7-|
D|---------------------------------------------------------------------------------------|
A|---------------------------------------------------------------------------------------|
D|---------------------------------------------------------------------------------------|


[Part 2]

(Guitar 1)

e|-----------------------------------------------------------------------------|
B|---7-------------7-----7-----7-------------7-----7-----3-------------3-----3-|
G|---7-------------7-----7-----7-------------7-----7-----2-------------2-----2-|
D|-5-------------5-----4-----5-------------5-----4-----0-------------2-----4---|
A|-5-------------5-----4-----5-------------5-----4-----0-------------2-----4---|
D|-5-------------5-----4-----5-------------5-----4-----0-------------2-----4---|

e|-----------------------------------------------------------------------------------|
B|---7-------------7-----7-----7-------------7-----7---------------------------------|
G|---7-------------7-----7-----7-------------7-----7---------------------------------|
D|-5-------------5-----4-----5-------------5-----4-----0-------------2-----4---5-4-2-|
A|-5-------------5-----4-----5-------------5-----4-----0-------------2-----4---5-4-2-|
D|-5-------------5-----4-----5-------------5-----4-----0-------------2-----4---5-4-2-|


(Guitar 2)

e|----------------------------------------------------------------------------|
B|----------------------------------------------------------------------------|
G|-2/11---11-11-11-11-11-11-11-11-11-11-11-2/11---11-11-11-9----9----9--9--9--|
D|---12---12-12-12-12-12-12-12-12-12-12-12---12---12-12-12-11---11---11-11-11-|
A|---12---12-12-12-12-12-12-12-12-12-12-12---12---12-12-12-12---12---12-12-12-|
D|----------------------------------------------------------------------------|

e|-------------------------------------------------------------------------------|
B|-------------------------------------------------------------------------------|
G|-2/11---11-11-11-11-11-11-11-111111-11-11-2/11---11-11-11-9----9----9--9--9--2-|
D|---12---12-12-12-12-12-12-12-121212-12-12---12---12-12-12-11---11---11-11-11-0-|
A|---12---12-12-12-12-12-12-12-121212-12-12---12---12-12-12-12---12---12-12-12-0-|
D|-------------------------------------------------------------------------------|

e|----------------------------------------------------------------------------|
B|----------------------------------------------------------------------------|
G|-2/11---11-11-11-11-11-11-11-11-11-11-11-2/11---11-11-11-9----9----9--9--9--|
D|---12---12-12-12-12-12-12-12-12-12-12-12---12---12-12-12-11---11---11-11-11-|
A|---12---12-12-12-12-12-12-12-12-12-12-12---12---12-12-12-12---12---12-12-12-|
D|----------------------------------------------------------------------------|

e|-------------------------------------------------------------------------------|
B|-------------------------------------------------------------------------------|
G|-2/11---11-11-11-11-11-11-11-111111-11-11-2/11---11-11-11-9----9----9--9--9--2-|
D|---12---12-12-12-12-12-12-12-121212-12-12---12---12-12-12-11---11---11-11-11-0-|
A|---12---12-12-12-12-12-12-12-121212-12-12---12---12-12-12-12---12---12-12-12-0-|
D|-------------------------------------------------------------------------------|


[Part 3]

(Guitar 1)

e|---------------------------------------------------------|
B|---------------------------------------------------------|
G|---------------------------------------------------------|
D|-5---5---5-5-5-9---9---9-9-9-0---0---0-0-0-2---2---5-4-2-|
A|-5---5---5-5-5-9---9---9-9-9-0---0---0-0-0-2---2---5-4-2-|
D|-5---5---5-5-5-9---9---9-9-9-0---0---0-0-0-2---2---5-4-2-|

e|-----------------------------------------------------------|
B|-----------------------------------------------------------|
G|-----------------------------------------------------------|
D|-5---5---5-5-5-9---9---9-9-9-0---0---0-0-0-2---2-2---2---2-|
A|-5---5---5-5-5-9---9---9-9-9-0---0---0-0-0-2---2-2---2---2-|
D|-5---5---5-5-5-9---9---9-9-9-0---0---0-0-0-2---2-2---2---2-|

e|---------------------------------------------------------|
B|---------------------------------------------------------|
G|---------------------------------------------------------|
D|-5---5---5-5-5-9---9---9-9-9-0---0---0-0-0-2---2---5-4-2-|
A|-5---5---5-5-5-9---9---9-9-9-0---0---0-0-0-2---2---5-4-2-|
D|-5---5---5-5-5-9---9---9-9-9-0---0---0-0-0-2---2---5-4-2-|

e|-----------------------------------------------------------|
B|-----------------------------------------------------------|
G|-----------------------------------------------------------|
D|-5---5---5-5-5-9---9---9-9-9-0---0---0-0-0-2---2-2---2---2-|
A|-5---5---5-5-5-9---9---9-9-9-0---0---0-0-0-2---2-2---2---2-|
D|-5---5---5-5-5-9---9---9-9-9-0---0---0-0-0-2---2-2---2---2-|


(Guitar 2)

e|-------------------------------------------------------------------|
B|-------------------------------------------------------------------|
G|-2/11---11---11-11-11-11---11---11-11-11-2---2---2-2-2-4---4---6/7-|
D|-0-12---12---12-12-12-12---12---12-12-12-0---0---0-0-0-2---2---4/5-|
A|-0-12---12---12-12-12-12---12---12-12-12-0---0---0-0-0-2---2---4/5-|
D|-------------------------------------------------------------------|

e|-----------------------------------------------------------------------|
B|-----------------------------------------------------------------------|
G|-2/11---11---11-11-11-11---11---11-11-11-2---2---2-2-2-4---6---7-9---4-|
D|-0-12---12---12-12-12-12---12---12-12-12-0---0---0-0-0-2---4---5-7---2-|
A|-0-12---12---12-12-12-12---12---12-12-12-0---0---0-0-0-2---4---5-7---2-|
D|-----------------------------------------------------------------------|

e|-------------------------------------------------------------------|
B|-------------------------------------------------------------------|
G|-2/11---11---11-11-11-11---11---11-11-11-2---2---2-2-2-4---4---6/7-|
D|-0-12---12---12-12-12-12---12---12-12-12-0---0---0-0-0-2---2---4/5-|
A|-0-12---12---12-12-12-12---12---12-12-12-0---0---0-0-0-2---2---4/5-|
D|-------------------------------------------------------------------|

e|-----------------------------------------------------------------------|
B|-----------------------------------------------------------------------|
G|-2/11---11---11-11-11-11---11---11-11-11-2---2---2-2-2-4---6---7-9---4-|
D|-0-12---12---12-12-12-12---12---12-12-12-0---0---0-0-0-2---4---5-7---2-|
A|-0-12---12---12-12-12-12---12---12-12-12-0---0---0-0-0-2---4---5-7---2-|
D|-----------------------------------------------------------------------|


[Part 4]

(Guitar 1)

e|---------------------------------------------------------------|
B|---------------------------------------------------------------|
G|---------------------------------------------------------------|
D|-----5---5---5---5---5---5---5---5---5---5---5---5---5---5---5-|
A|-----5---5---5---5---5---5---5---5---5---5---5---5---5---5---5-|
D|-----5---5---5---5---5---5---5---5---5---5---5---5---5---5---5-|

e|---------------------------------|
B|---------------------------------|
G|---------------------------------|
D|-0---0---0---0-0-0-2-2---2---2-2-|
A|-0---0---0---0-0-0-2-2---2---2-2-|
D|-0---0---0---0-0-0-2-2---2---2-2-|

e|---------------------------------------------------------------|
B|---------------------------------------------------------------|
G|---------------------------------------------------------------|
D|-5---5---5---5---5---5---5---5---5---5---5---5---5---5---5---5-|
A|-5---5---5---5---5---5---5---5---5---5---5---5---5---5---5---5-|
D|-5---5---5---5---5---5---5---5---5---5---5---5---5---5---5---5-|

e|-------------------------------------------------------------------|
B|-------------------------------------------------------------------|
G|-------------------------------------------------------------------|
D|-0---0---0---0-0-0-2-2---2---2-2-9---9---9---9-9-9-0-0---0---0-0-5-|
A|-0---0---0---0-0-0-2-2---2---2-2-9---9---9---9-9-9-0-0---0---0-0-5-|
D|-0---0---0---0-0-0-2-2---2---2-2-9---9---9---9-9-9-0-0---0---0-0-5-|


(Guitar 2)

e|------------------------------------------------------------------------------|
B|-----9----9----9----9----9----9----9----9----9----9----9----9----9----9----9--|
G|-----11---11---11---11---11---11---11---11---11---11---11---11---11---11---11-|
D|-----12---12---12---12---12---12---12---12---12---12---12---12---12---12---12-|
A|-----9----9----9----9----9----9----9----9----9----9----9----9----9----9----9--|
D|------------------------------------------------------------------------------|

e|-------------------------------------------------------------------------|
B|-10-10-10-10-10-10-10-10-10-10-10-10-10-10-10-10-10-10-12-12-12-12-12-12-|
G|-------------------------------------------------------------------------|
D|-------------------------------------------------------------------------|
A|-------------------------------------------------------------------------|
D|-------------------------------------------------------------------------|

e|-9-9-9-9-9-9-9-9-9-9-9-9-------------------------|
B|-------------------------9-9-9-9-9-9-9-9-9-9-9-9-|
G|-------------------------------------------------|
D|-------------------------------------------------|
A|-------------------------------------------------|
D|-------------------------------------------------|

e|------------------------------------------------------------------------------|
B|-9---9----9----9----9----9----9----9----9----9----9----9----9----9----9----9--|
G|-11--11---11---11---11---11---11---11---11---11---11---11---11---11---11---11-|
D|-12--12---12---12---12---12---12---12---12---12---12---12---12---12---12---12-|
A|-9---9----9----9----9----9----9----9----9----9----9----9----9----9----9----9--|
D|------------------------------------------------------------------------------|

e|-------------------------------------------------------------------------|
B|-10-10-10-10-10-10-10-10-10-10-10-10-10-10-10-10-10-10-12-12-12-12-12-12-|
G|-------------------------------------------------------------------------|
D|-------------------------------------------------------------------------|
A|-------------------------------------------------------------------------|
D|-------------------------------------------------------------------------|

e|-9-9-9-9-9-9-9-9-9-9-9-9-------------------------|
B|-------------------------9-9-9-9-9-9-9-9-9-9-9-9-|
G|-------------------------------------------------|
D|-------------------------------------------------|
A|-------------------------------------------------|
D|-------------------------------------------------|

e|-10-10-10-10-10-10-10-10-10-10-10-10-10-10-10-10-10-10-12-12-12-12-12-12-|
B|-------------------------------------------------------------------------|
G|-------------------------------------------------------------------------|
D|-------------------------------------------------------------------------|
A|-------------------------------------------------------------------------|
D|-------------------------------------------------------------------------|

e|-14-14-14-14-14-14-14-14-14-14-14-14-9-9-9-9-9-9-9-9-9-9-9-9-7-|
B|---------------------------------------------------------------|
G|---------------------------------------------------------------|
D|---------------------------------------------------------------|
A|---------------------------------------------------------------|
D|---------------------------------------------------------------|


[Part 5]

(Guitar 1)

e|--------------------------------------------------|
B|--------------------------------------------------|
G|--------------------------------------------------|
D|-9-----9---9-9---9---9---7-----7---7-12---12---12-|
A|-9-----9---9-9---9---9---7-----7---7-12---12---12-|
D|-9-----9---9-9---9---9---7-----7---7-12---12---12-|

e|-------------------------------------------------------|
B|-------------------------------------------------------|
G|-------------------------------------------------------|
D|-2-2-2-2---2-4-4-4-4---4-5-5-5-5---5-12-12-12-12-12-12-|
A|-2-2-2-2---2-4-4-4-4---4-5-5-5-5---5-12-12-12-12-12-12-|
D|-2-2-2-2---2-4-4-4-4---4-5-5-5-5---5-12-12-12-12-12-12-|

e|-------------------------------x-------|
B|-------------------------------x-------|
G|-------------------------------x-------|
D|-9-----9---9-9---9---9---7-----x-----0-|
A|-9-----9---9-9---9---9---7-----x-----0-|
D|-9-----9---9-9---9---9---7-----x-----0-|

e|-------------------------------------------------------|
B|-------------------------------------------------------|
G|-------------------------------------------------------|
D|-2-2-2-2---2-4-4-4-4---4-5-5-5-5---5-12-12-12-12-12-12-|
A|-2-2-2-2---2-4-4-4-4---4-5-5-5-5---5-12-12-12-12-12-12-|
D|-2-2-2-2---2-4-4-4-4---4-5-5-5-5---5-12-12-12-12-12-12-|

e|--------------------------------------------------|
B|--------------------------------------------------|
G|--------------------------------------------------|
D|-9-----9---9-9---9---9---7-----7---7-12---12---12-|
A|-9-----9---9-9---9---9---7-----7---7-12---12---12-|
D|-9-----9---9-9---9---9---7-----7---7-12---12---12-|

e|-------------------------------------------------------|
B|-------------------------------------------------------|
G|-------------------------------------------------------|
D|-2-2-2-2---2-4-4-4-4---4-5-5-5-5---5-12-12-12-12-12-12-|
A|-2-2-2-2---2-4-4-4-4---4-5-5-5-5---5-12-12-12-12-12-12-|
D|-2-2-2-2---2-4-4-4-4---4-5-5-5-5---5-12-12-12-12-12-12-|

e|---------------------------------------|
B|---------------------------------------|
G|---------------------------------------|
D|-9-----9---9-9---9---9---7--7--7--7--0-|
A|-9-----9---9-9---9---9---7--7--7--7--0-|
D|-9-----9---9-9---9---9---7--7--7--7--0-|


(Guitar 2)

e|--------------------------------------------------|
B|--------------------------------------------------|
G|-7-----7---7-7---7---7---6-----6---6-11---11---11-|
D|-7-----7---7-7---7---7---7-----7---7-12---12---12-|
A|-5-----5---5-5---5---5---4-----4---4-9----9----9--|
D|--------------------------------------------------|

e|-------------------------------------------------------|
B|-------------------------------------------------------|
G|-4-4-4-4---4-6-6-6-6---6-7-7-7-7---7-11-11-11-11-11-11-|
D|-4-4-4-4---4-7-7-7-7---7-7-7-7-7---7-12-12-12-12-12-12-|
A|-2-2-2-2---2-4-4-4-4---4-5-5-5-5---5-9--9--9--9--9--9--|
D|-------------------------------------------------------|

e|----------------------------------------|
B|----------------------------------------|
G|-7-----7---7-7---7---7---6-----x-----11-|
D|-7-----7---7-7---7---7---7-----x-----12-|
A|-5-----5---5-5---5---5---4-----x-----9--|
D|----------------------------------------|

e|-------------------------------------------------------|
B|-------------------------------------------------------|
G|-4-4-4-4---4-6-6-6-6---6-7-7-7-7---7-11-11-11-11-11-11-|
D|-4-4-4-4---4-7-7-7-7---7-7-7-7-7---7-12-12-12-12-12-12-|
A|-2-2-2-2---2-4-4-4-4---4-5-5-5-5---5-9--9--9--9--9--9--|
D|-------------------------------------------------------|

e|--------------------------------------------------|
B|--------------------------------------------------|
G|-7-----7---7-7---7---7---6-----6---6-11---11---11-|
D|-7-----7---7-7---7---7---7-----7---7-12---12---12-|
A|-5-----5---5-5---5---5---4-----4---4-9----9----9--|
D|--------------------------------------------------|

e|-------------------------------------------------------|
B|-------------------------------------------------------|
G|-4-4-4-4---4-6-6-6-6---6-7-7-7-7---7-11-11-11-11-11-11-|
D|-4-4-4-4---4-7-7-7-7---7-7-7-7-7---7-12-12-12-12-12-12-|
A|-2-2-2-2---2-4-4-4-4---4-5-5-5-5---5-9--9--9--9--9--9--|
D|-------------------------------------------------------|

e|------------------------------------|
B|------------------------------------|
G|-7-----7---7-7---7---7---6--6--6--6-|
D|-7-----7---7-7---7---7---7--7--7--7-|
A|-5-----5---5-5---5---5---4--4--4--4-|
D|------------------------------------|


[Part 6]

(Guitar 2) 

e|-------------------------------------------------------------------------------------------|
B|-------------------------------------------------------------------3-----------------------|
G|-6---------11---7---------------12-----14-----6---------11---7-------7-------12-----14-----|
D|-------------------------------------------------------------------------------------------|
A|-------------------------------------------------------------------------------------------|
D|-------------------------------------------------------------------------------------------|

e|-------------------------------------------------------------------------------------------|
B|-5-5-5-5-5-5-7-7-7-7-7-7-8-8-8-8-8-8-10-10-10-10-10-10-12-12-12-12-12-12-14-14-14-14-14-14-|
G|-------------------------------------------------------------------------------------------|
D|-------------------------------------------------------------------------------------------|
A|-------------------------------------------------------------------------------------------|
D|-------------------------------------------------------------------------------------------|

e|-------------------------------------------------------------------------------------------|
B|-5-5-5-5-5-5-7-7-7-7-7-7-8-8-8-8-8-8-10-10-10-10-10-10-12-12-12-12-12-12-14-14-14-14-14-14-|
G|-------------------------------------------------------------------------------------------|
D|-------------------------------------------------------------------------------------------|
A|-------------------------------------------------------------------------------------------|
D|-------------------------------------------------------------------------------------------|

e|-------------------------------------------------------------------------------------------|
B|-5-5-5-5-5-5-7-7-7-7-7-7-8-8-8-8-8-8-10-10-10-10-10-10-12-12-12-12-12-12-14-14-14-14-14-14-|
G|-6-6-6-6-6-6-7-7-7-7-7-7-9-9-9-9-9-9-11-11-11-11-11-11-12-12-12-12-12-12-14-14-14-14-14-14-|
D|-------------------------------------------------------------------------------------------|
A|-------------------------------------------------------------------------------------------|
D|-------------------------------------------------------------------------------------------|

e|-------------------------------------------------------------------------------------------|
B|-5-5-5-5-5-5-7-7-7-7-7-7-8-8-8-8-8-8-10-10-10-10-10-10-12-12-12-12-12-12-10-10-10-10-10-10-|
G|-6-6-6-6-6-6-7-7-7-7-7-7-9-9-9-9-9-9-11-11-11-11-11-11-12-12-12-12-12-12-11-11-11-11-11-11-|
D|-------------------------------------------------------------------------------------------|
A|-------------------------------------------------------------------------------------------|
D|-------------------------------------------------------------------------------------------|

e|---------------------------------------------------|
B|-8-8-8-8-8-8-7-7-7-7-7-7-5-5-5-5-5-5-3-3-3-3-3-3-2-|
G|-8-8-8-8-8-8-7-7-7-7-7-7-6-6-6-6-6-6-4-4-4-4-4-4-2-|
D|---------------------------------------------------|
A|---------------------------------------------------|
D|---------------------------------------------------|

e|-------------------------------------------------------------|
B|-------------------------------------------------------------|
G|---------------------------------------7---------------------|
D|-9-----9---9-9---9---9---7---7-------------7---------------0-|
A|-9-----9---9-9---9---9---7-------7-------------------------0-|
D|-9-----9---9-9---9---9---7---------------------------------0-|


***********************************
| /   Slide up
| \   Slide down
| x   Dead note
***********************************

            
            
Suggest correction
Creating personal tab
Creating personal tab
You can edit any tab online and save it as your Personal.

You can edit, replace or remove any tab part or add personal notes – all changes will be seen only by you.

Personal tabs can be accessed anytime from any device, even offline.
Learn more »
Give kudos to tab author, rate the tab!
1 2 3 4 5
comments
print report bad tab
1 comment total.
+2 reply
Aes0p 10 Dec 28, 2016 10:43 PM

Everything sounds good to me, thanks! Didn't expect to see any Totorro tabs out

guest
You may want to rate the tab now too:
select rating
Wanna post a correction for this tab? Suggest correction