Oops, an error
Loading. Please wait.

Gravity Metaphorically Clean Section Tab

2,222 views 3 this week
2 commentsread comments
1 2 3 4 5
please rate
add to favorites
launch autoscroll
font size
0
reset
how to read this tab
guitar tuner
Autoscroll
slow
fast
+/-
esc
set tempo
stop
Help us to improve Ultimate-Guitar.com Take our survey!
×
Author
Difficulty
Tuning
novice
C# G# C# F# A# D#
|------------------------------------------|
|--------------4slide2-0-------------------|
|-----0----------------------0---0---------|
|---5---------------------0h2--0h2---------|
|-7-----5h7p0-----------3-----3------------|
|------------------------------------| x 4-|

CHORDS AFTER 2 TIMES

|-3----------3-----5-----3-----------|
|------------------------------------|
|-4----------4-----4-----4-----------|
|-5----------5-----5-----5-----------|
|------------------------------------|
|------------------------------------|
Suggest correction
Give kudos to tab author, rate the tab!
1 2 3 4 5
comments
print report bad tab
2 comments total.
0 reply
norkosaurus 199 wrote on May 9 2014, 05:37 pm, edited at 05:39 pm

D#|-------------------------------------|
A#|-------------------------------------|
F#|-------0----0---4\2p0------0---0-----|
C#|-----5-----4------------0h2--0h2-----|
G#|---7------5-----------3-----3--------|
C#|-------------------------------------|

0 reply
norkosaurus 199 wrote on May 9 2014, 05:41 pm

god damn I cant edit my comment.. please delete my first comment, this is right:

D#|-------------------------------------|
A#|-------------------------------------|
F#|-------0----0---4\2p0------0-----0---|
C#|-----5-----4------------0h2---0h2----|
G#|---7------5-----------3-----3--------|
C#|-------------------------------------|

guest
You may want to rate the tab now too:
select rating
Please do not post tabs as comments. Select "correction" instead!