Oops, an error
Loading. Please wait.

Home Away From Here Tab

version 2
version 2

Whole song

Interactive

4,889 views 15 this week
1 commentread comment
1 2 3 4 5
accurate
x 4
add to favorites
launch autoscroll
font size
0
reset
how to read this tab
guitar tuner
Tab Pro tools
  • play this tab
  • loop segment
  • change instrument
  • show fretboard
  • metronome
×
Best way to learn
"Home Away From Here"
Autoscroll
slow
fast
+/-
esc
set tempo
stop
Contributor
Difficulty
Tuning
novice
C# G# C# F# A# D#
touché amoré - home away from here
jjjddd

Drop C#

eb|-------------------------------------------------|
Bb|-------------------------------------------------|
Gb|-16--16--16--16--16-16-16----4--4--4--4--4-4-4---|
Db|-----------------------------2--2--2--2--2-2-2---|
Ab|-14--14--14--14--14-14-14----0--0--0--0--0-0-0---|
Db|-------------------------------------------------|
                                                         |lyrics|
eb|-------------------------------------------------|   im coming to terms
Bb|-------------------------------------------------|   that im not concerned
Gb|-16--16--16--16--16\---4-4--4--4-4---------------|   with planting my feet
Db|-----------------------2-2--2--2-2--5-5--5--5-5--|   but moving onward
Ab|-14--14--14--14--14\---0-0--0--0-0--5-5--5--5-5--|   im growing older
Db|------------------------------------5-5--5--5-5--|   but i cant get over
                                                        the need of...
eb|-------------------------------------------------|
Bb|-------------------------------------------------|
Gb|-16--16--16--16--16-16-16----4--4--4--4--4-4-4---|
Db|-----------------------------2--2--2--2--2-2-2---|
Ab|-14--14--14--14--14-14-14----0--0--0--0--0-0-0---|
Db|-------------------------------------------------|

eb|----------------------|
Bb|----------------------|
Gb|-16--16--16--16--16\--|
Db|----------------------|
Ab|-14--14--14--14--14\--|
Db|----------------------|


eb|-------------------------------------------------|      |lyrics|
Bb|-------------------------------------------------|    colder skin when i know
Gb|-4-4--4--4-4-------------7-7--7--7-7-6-6--6--6-6-|    that home is warmer
Db|-2-2--2--2-2-5-5--5--5-5-------------------------|x2  its just i have this problem
Ab|-0-0--0--0-0-5-5--5--5-5-5-5--5--5-5-4-4--4--4-4-|    where i wanna be everywhere im not
Db|-------------5-5--5--5-5-------------------------|
on the second repeat of ^that line another guitar plays this over it
eb|-------------------------------------------------|
Bb|-------------------------------------------------|
Gb|-14/16-16-16-16-16-16-16-16-16-16-16-16-14-19\---|
Db|-------------------------------------------------|
Ab|-12/14-14-14-14-14-14-14-14-14-14-14-14-12-17\---|
Db|-------------------------------------------------|


eb|-------------------------------------------------|     |lyrics|
Bb|-------------------------------------------------|   but im thankful for what ive got
Gb|-14/16-16-16-16-16-16-16-14/16-16-16-16-14-19\---|   a room in a house where my bed may stay
Db|-------------------------------------------------|x2 but the feel of anothers sheets
Ab|-12/14-14-14-14-14-14-14-12/14-14-14-14-12-17\---|   help keep my demons away
Db|-------------------------------------------------|


eb|-------------------------------------------------|
Bb|-------------------------------------------------|
Gb|-16--16--16--16--16-16-16----4--4--4--4--4-4-4---|
Db|-----------------------------2--2--2--2--2-2-2---|
Ab|-14--14--14--14--14-14-14----0--0--0--0--0-0-0---|
Db|-------------------------------------------------|    |lyrics|
                                                        its become clear
eb|-------------------------------------------------|   that what keeps me here
Bb|-------------------------------------------------|   is that sense of failure
Gb|-16--16--16--16--16\---4-4--4--4-4---------------|   and other nightmares
Db|-----------------------2-2--2--2-2--5-5--5--5-5--|   ive become jaded
Ab|-14--14--14--14--14\---0-0--0--0-0--5-5--5--5-5--|   and i cant escape it
Db|------------------------------------5-5--5--5-5--|   the thought of...

eb|-------------------------------------------------|
Bb|-------------------------------------------------|
Gb|-16--16--16--16--16-16-16----4--4--4--4--4-4-4---|
Db|-----------------------------2--2--2--2--2-2-2---|
Ab|-14--14--14--14--14-14-14----0--0--0--0--0-0-0---|
Db|-------------------------------------------------|

eb|----------------------|
Bb|----------------------|
Gb|-16--16--16--16--16\--|
Db|----------------------|
Ab|-14--14--14--14--14\--|
Db|----------------------|


eb|-------------------------------------------------|     |lyrics|
Bb|-------------------------------------------------|   settling when i know its what
Gb|-4-4--4--4-4-------------7-7--7--7-7-6-6--6--6-6-|   i hated
Db|-2-2--2--2-2-5-5--5--5-5-------------------------|x3 its just i have this problem
Ab|-0-0--0--0-0-5-5--5--5-5-5-5--5--5-5-4-4--4--4-4-|   where i wanna be everywhere im not
Db|-------------5-5--5--5-5-------------------------|   its just i know myself
                                                        and ill sacrifice everything ive got

eb|-------------------------------------------------|     |lyrics|
Bb|-------------------------------------------------|   though i cant afford to eat
Gb|-14/16-16-16-16-16-16-16-14/16-16-16-16-14-19\---|   as much as i would like to be
Db|-------------------------------------------------|x2 and my bills wont pay themselves
Ab|-12/14-14-14-14-14-14-14-12/14-14-14-14-12-17\---|   so ill come up with another scheme
Db|-------------------------------------------------|


eb|--------------------------------------0~~~-------|     |lyrics|
Bb|------------------------------0h1-----0~~~-------|   this place looks better
Gb|-14-14/16~~~----------------------0h2------------|   from a passenger window
Db|-------------------------------------------------|   or when stared at from up above
Ab|-12-12/14~~~-------------------------------------|   when youre chasing brightness
Db|-------------------------------------------------|   you lose concern with the...

eb|---------------|
Bb|---------------| |lyrics| 
Gb|--16-16-16-16--| damage done
Db|---------------|
Ab|--14-14-14-14--|
Db|---------------|


eb|-------------------------------------------------|     |lyrics|
Bb|-------------------------------------------------|   its not my fault
Gb|-4-4--4--4-4-------------7-7--7--7-7-6-6--6--6-6-|   ill try to call
Db|-2-2--2--2-2-5-5--5--5-5-------------------------|x2
Ab|-0-0--0--0-0-5-5--5--5-5-5-5--5--5-5-4-4--4--4-4-|
Db|-------------5-5--5--5-5-------------------------|


eb|-----------------------|
Bb|-----------------------|  |lyrics| 
Gb|-4--4--4--4--4--4-4-4--| no ties no roots im fine
Db|-2--2--2--2--2--2-2-2--|
Ab|-0--0--0--0--0--0-0-0--|
Db|-----------------------|

comments
print report bad tab
1 comment total. show 1 bad comment
I want to post or [tab]
guest
You may want to rate the tab now too:
select rating
Please do not post tabs as comments. Select "correction" instead!