Oops, an error
Loading. Please wait.

Honest Sleep Bass Tab

version 1
version 1

Whole song

Interactive

1,293 views 3 this week
no commentswrite comment
1 2 3 4 5
2 more votes to show rating
add to favorites
launch autoscroll
font size
0
reset
guitar tuner
Autoscroll
slow
fast
+/-
esc
set tempo
stop
Help us to improve Ultimate-Guitar.com Take our survey!
×
intro
F#|------------------------------|
C#|------------------------------|
G#|--------------8(x8)-7(x8)-----|
C#|-888-887-333------------------|

verse

F#|------------------------------|
C#|------------------------------|
G#|------------------------------|
C#|-888-887-333-333-0(x12)-------|

F#|------------------------------|
C#|------------------------------|
G#|------------------------------|
C#|-4-7-4------6666-0------------|

build-up

F#|------------------------------|
C#|-8(x6)-887--------------------|
G#|-----------8(x8)--------------|
C#|-----------------0(x8)--------|

outro

F#|------------------------------|
C#|------------------------------|
G#|------------------------------|
C#|-8(x7)-7-3(x8)-15(x8)-14(x8)--|

sometimes he adds something like this
F#|------------------------------|
C#|------------------------------|
G#|------------------------------|
C#|-15(x8)-17(x8)-19(x14)-17(x2)-|

I couldn't figure out the cool scale-run-thingies, sorry about that, so feel free to 
correct this tab.
Suggest correction
Give kudos to tab author, rate the tab!
1 2 3 4 5
comments
print report bad tab
guest
You may want to rate the tab now too:
select rating
Wanna post a correction for this tab? Suggest correction