Oops, an error
Loading. Please wait.

Non Fiction Tab

version 1
version 1

Whole song

Interactive

5,840 views 1 this week
1 commentread comment
1 2 3 4 5
x 14
add to favorites
launch autoscroll
font size
0
reset
how to read this tab
guitar tuner
Autoscroll
slow
fast
+/-
esc
set tempo
stop
Help us to improve Ultimate-Guitar.com Take our survey!
×
-----------------------------------------------------------------------------
                             NON FICTION - Touche Amore
-----------------------------------------------------------------------------

Tuning: Drop C#

Intro: (leads comes in on 3rd time)
eb|--------------------------------------------------------|
Bb|--------------------------------------------------------|
Gb|--------------------------------------------------------|
Db|-----0-------0-------0-------0-----0-----------7--------|
Ab|---4---0---5---5---4---0---5---5-9---0-9-7-7/9---9/7-5--|
Db|-5-------4-------5-------4------------------------------|
  |                                                        |x4
eb|--------------------------------------------------------|
Bb|--------------------------------------------------------|
Gb|--------------------------------------------------------|
Db|-----0---------------0---------------0------------------|
Ab|---4---0-----------4---0-----------9---9-7--------------|
Db|-5---------------5---------------9----------------------|

eb|--------------------------------------------------------|
Bb|--------------------------------------------------------|
Gb|--------------------------------------------------------|
Db|-----0-------0-------0-------0-----0-----------7--------|
Ab|---4---0---5---5---4---0---5---5-9---0-9-7-7/9---9/7-5--|
Db|-5-------4-------5-------4------------------------------|
  |                                                        |x2   2nd Ending:
eb|----------------------------------5---------------------|---------------|
Bb|-------7--------------------------x--7---5--------------|-----10--------|
Gb|----7------------7--6-------------6--~---6--------------|-9/11--11/9-7--|
Db|-0---------------------7----------7--~---7--------------|---------------|
Ab|--------------------------------------------------------|---------------|
Db|--------------------------------------------------------|---------------|

Build-up:
eb|---------------------------------|---------------------------------|
Bb|---------------------------------|---------------------------------|
Gb|---------------------------------|---------------------------------|
Db|-9-9-9-9-9-9-9-9-5-5-5-5-4-4-4-4-|-9-9-9-9-9-9-9-9-5-5-5-5-4-4-4-4-|
Ab|-5-5-5-5-5-5-5-5-5-5-5-5-5-5-5-5-|-5-5-5-5-5-5-5-5-5-5-5-5-5-5-5-5-|
Db|-5-5-5-5-5-5-5-5-5-5-5-5-5-5-5-5-|-5-5-5-5-5-5-5-5-5-5-5-5-5-5-5-5-|
  |                                                                   |
eb|-7-9-7-----------------7---------|-7-9-7-----------------7---------|
Bb|-------10-----------10---10---10-|-------10-----------10---10---10-|
Gb|---------------------------------|---------------------------------|
Db|---------------------------------|---------------------------------|
Ab|---------------------------------|---------------------------------|
Db|---------------------------------|---------------------------------|

eb|---------------------------------|---------------------------------|
Bb|---------------------------------|---------------------------------|
Gb|-7-7-7-7-7-7-7-7-9-9-9-9-9-9-9-9-|-6-6-6-6-6-6-6-6-2-2-2-2-2-2-2-2-|
Db|-x-x-x-x-x-x-x-x-x-x-x-x-x-x-x-x-|-x-x-x-x-x-x-x-x-x-x-x-x-x-x-x-x-|
Ab|-5-5-5-5-5-5-5-5-7-7-7-7-7-7-7-7-|-4-4-4-4-4-4-4-4-0-0-0-0-0-0-0-0-|
Db|-0-0-0-0-0-0-0-0-0-0-0-0-0-0-0-0-|-0-0-0-0-0-0-0-0-0-0-0-0-0-0-0-0-|
  |                                                                   |
eb|-10-9-7----------------7---------|-10-9-7----------------7---------|
Bb|--------10----------10---10---10-|--------10----------10---10---10-|
Gb|---------------------------------|---------------------------------|
Db|---------------------------------|---------------------------------|
Ab|---------------------------------|---------------------------------|
Db|---------------------------------|---------------------------------|

eb|---------------------------------|---------------------------------|
Bb|---------------------------------|---------------------------------|
Gb|---------------------------------|---------------------------------|
Db|-9-9-9-9-9-9-9-9-5-5-5-5-4-4-4-4-|-9-9-9-9-9-9-9-9-5-5-5-5-4-4-4-4-|
Ab|-5-5-5-5-5-5-5-5-5-5-5-5-5-5-5-5-|-5-5-5-5-5-5-5-5-5-5-5-5-5-5-5-5-|
Db|-5-5-5-5-5-5-5-5-5-5-5-5-5-5-5-5-|-5-5-5-5-5-5-5-5-5-5-5-5-5-5-5-5-|
  |                                                                   |
eb|-10-9-7--7--7----10-9-7---7--7---|-10-9-7--7--7---12-12-12-12-12-12|
Bb|-------10-10-10---------10-10-10-|-------10-10-10------------------|
Gb|---------------------------------|---------------------------------|
Db|---------------------------------|---------------------------------|
Ab|---------------------------------|---------------------------------|
Db|---------------------------------|---------------------------------|

eb|---------------------------------|---------------------------------|
Bb|---------------------------------|---------------------------------|
Gb|-7-7-7-7-7-7-7-7-9-9-9-9-9-9-9-9-|-6-6-6-6-6-6-6-6-6-6-6-6-6-6-6-6-|
Db|-x-x-x-x-x-x-x-x-x-x-x-x-x-x-x-x-|-x-x-x-x-x-x-x-x-x-x-x-x-x-x-x-x-|
Ab|-5-5-5-5-5-5-5-5-7-7-7-7-7-7-7-7-|-4-4-4-4-4-4-4-4-4-4-4-4-4-4-4-4-|
Db|-0-0-0-0-0-0-0-0-0-0-0-0-0-0-0-0-|-0-0-0-0-0-0-0-0-0-0-0-0-0-0-0-0-|
  |                                                                   |
eb|-10-9-7--7--7----10-9-7---7--7---|-10-9-7--7--7----12--12--14--14--|
Bb|-------10-10-10---------10-10-10-|-------10-10-10------------------|
Gb|---------------------------------|---------------------------------|
Db|---------------------------------|---------------------------------|
Ab|---------------------------------|---------------------------------|
Db|---------------------------------|---------------------------------|

Release:
eb|------------------------------------------------------------------|
Bb|------------------------------------------------------------------|
Gb|------------------------------------------------------------------|
Db|-5-5-5-5-5-5-5-5-0-0-0-0-0-0-0-0-7-7-7-7-7-7-7-7-9-9-9-9-9-9-9-9--|
Ab|-5-5-5-5-5-5-5-5-0-0-0-0-0-0-0-0-7-7-7-7-7-7-7-7-9-9-9-9-9-9-9-9--|
Db|-5-5-5-5-5-5-5-5-0-0-0-0-0-0-0-0-7-7-7-7-7-7-7-7-9-9-9-9-9-9-9-9--|
  |                                                                  |x2
eb|-5---5---5---5-------5---5---5------------------------p-------p---|
Bb|---------------------------------5---5---5---5---7---87----7-87---|
Gb|---7---7---7---7---7---7---7---7-------------------0---7-------4/7|
Db|-----------------0-~---------------7---7---7---7------------------|
Ab|-----------------0-~----------------------------------------------|
Db|-----------------0-~----------------------------------------------|

eb|------------------------------------------------------------------|
Bb|------------------------------------------------------------------|
Gb|------------------------------------------------------------------|
Db|-5-5-5-5-5-5-5-5-0-0-0-0-0-0-0-0-7-7-7-7-7-7-7-7-9-9-9-9-9-9-9-9--|
Ab|-5-5-5-5-5-5-5-5-0-0-0-0-0-0-0-0-7-7-7-7-7-7-7-7-9-9-9-9-9-9-9-9--|
Db|-5-5-5-5-5-5-5-5-0-0-0-0-0-0-0-0-7-7-7-7-7-7-7-7-9-9-9-9-9-9-9-9--|
  |                                                                  |
eb|-55555555555557775555555555555777---------------------p-----p-----|
Bb|-xxxxxxxxxxxxxxxxxxxxxxxxxxxxxxxx5555555555555555--7-87---7-87----|
Gb|-77777777777777777777777777777777xxxxxxxxxxxxxxxx0------7------4/7|
Db|---------------------------------7777777777777777-----------------|
Ab|------------------------------------------------------------------|
Db|------------------------------------------------------------------|

Last time:
eb|------------------------------------------------------------------|
Bb|------------------------------------------------------------------|
Gb|------------------------------------------------------------------|
Db|-5-5-5-5-5-5-5-5-0-0-0-0-0-0-0-0-7-7-7-7-7-7-7-7-9-9-9-9-9-9-9-9--|
Ab|-5-5-5-5-5-5-5-5-0-0-0-0-0-0-0-0-7-7-7-7-7-7-7-7-9-9-9-9-9-9-9-9--|
Db|-5-5-5-5-5-5-5-5-0-0-0-0-0-0-0-0-7-7-7-7-7-7-7-7-9-9-9-9-9-9-9-9--|
  |                                                                  |
eb|-1212121212121212121212121212121212121212121212121212121212121212-|
Bb|-1010101010101010101010101010101010101010101010101010101010101010-|
Gb|------------------------------------------------------------------|
Db|------------------------------------------------------------------|
Ab|------------------------------------------------------------------|
Db|------------------------------------------------------------------|

End on:
eb|-----------|
Bb|-----------|
Gb|-----------|
Db|-5---------|
Ab|-5---------|
Db|-5---------|
  |           |
eb|-12--------|
Bb|-10--------|
Gb|-----------|
Db|-----------|
Ab|-----------|
Db|-----------|
Suggest correction
comments
print report bad tab
1 comment total.
0 reply
DimSim 64 Mar 29, 2014 02:46 AM

Who is rating this down? There are a few errors for sure but overall it's a fantastic tab.

guest
You may want to rate the tab now too:
select rating
Wanna post a correction for this tab? Suggest correction