Oops, an error
Loading. Please wait.

Claustrospelunker intro bass

298 views 3 this week
1 commentread comment
1 2 3 4 5
1 last vote to show rating
add to favorites
×
Save as Personal and add changes to this tab that will be seen only by you. Learn more ›
×
You can save this tab as Personal to edit and correct it or add notes. All changes will be seen only by you. Learn more »
launch autoscroll
font size
0
reset
guitar tuner
edit
Autoscroll
slow
fast
+/-
esc
set tempo
stop
Difficulty
intermediate
==================== Tourniquet - Claustrospelunker ===================
=============================== Bass Tab ==============================
============================= by animal122 ============================

h = hammer on
~ = vibrato
x = mute note

To avoid confusion: Sometimes the tab says something like 131112.
This means: 13 11 12. Not, for example: 1 3 1 1 1 2. For a good
understanding of the rhythm of the song, this was necessary.
Please listen to the song closely to avoid confusion.

If you have any suggestions, feel free to send an e-mail to nielsje456@live.nl

--------------------------------------------------------------------|
------------------------3-4-5-6-3456-------------3------------------|
5h6-5-6---------3-6-5-6--------------6-3-----3-6---6---65---54---43-|
--------5-4-4h5--------------------------4-5---------6----5----4----|

--------------------------------------------------------------------|
------------3-1-0-1-------3-------1---1---------------------3-4-5-6-|
------3-2-1---------1-3-3---2-1-1---1---1-----------3-4-5-6---------|
3-1-1-------------------------------------4-4-5-5-6-----------------|

----------------------------------------------------------5-6-7-8~--|
------------3-------------------3---3-------------5-6-7-8-----------|
6-3-----3-6---6---65---54-4-3-3---3---3---3-4-5-6-------------------|
----4-5---------6----5------------------6---------------------------|

131112---------------------------------------------------------------|
------1311-----------------------13---1312---11---1110-------109-8---|
-----------11-x1011----x11~-12~----13-----12---11------10-8~-------8-|
-------------------119-----------------------------------------------|

-------------------------|
-8-6--5------------------|
-----4-6-7---x8----5-x6--|
-----------8---7-6-------|
Suggest correction
Creating personal tab
Creating personal tab
You can edit any tab online and save it as your Personal.

You can edit, replace or remove any tab part or add personal notes – all changes will be seen only by you.

Personal tabs can be accessed anytime from any device, even offline.
Learn more »
Give kudos to tab author, rate the tab!
1 2 3 4 5
comments
print report bad tab
1 comment total.
0 reply
legorock4fun 10 Apr 16, 2016 03:55 PM

This was an incredible tab that was worth learning, great job! Five stars!

guest
Wanna post a correction for this tab? Suggest correction