Oops, an error
Loading. Please wait.

Flowering Cadaver tab

46 views 1 this week
no commentswrite comment
1 2 3 4 5
3 more votes to show rating
add to favorites
×
Save as Personal and add changes to this tab that will be seen only by you. Learn more ›
×
You can save this tab as Personal to edit and correct it or add notes. All changes will be seen only by you. Learn more »
launch autoscroll
font size
0
reset
how to read this tab
guitar tuner
edit
Autoscroll
slow
fast
+/-
esc
set tempo
stop
Hey! 
Tuning is 2 whole steps down.
Hope the tab helps, please request any songs you would like me to tab or teach on YouTube.
Rock on For God!

[Intro]

e|-------------------------------/-------------|
B|-------------------------------/-------------|
G|----------------------7---12-9-/---11-8---9--|
D|----------------7-9------------/-------------|
A|---5-7---10-7------------------/-------------|
E|-0-----0------0-----0---0------/-------------|
    repeat a few times then play     this

[Main Riff]

e|--------------------------------------------------------------------------|
B|--------------------------------------------------------------------------|
G|----------------------7---12-9--------------------------------------------|
D|----------------7-9---------------8-8-8-8-7-7-7--7-7-7-7-5-3-2------------|
A|---5-7---10-7---------------------8-8-8-8-7-7-7--7-7-7-7-5-5-2------------|
E|-0-----0------0-----0---0-------0-6-6-6-6-5-5-5--5-5-5-5-3-3-0------------|


[Instrumental 1 ]

[Guitar 1]
e|---------------------------------------------------------------------------|
B|-------------------10----12-8--10-7----------------------------------------|
G|-12-9--11-8--12-9-----8--------------12-9--11-8----------------------------|
D|---------------------------------------------------------------------------|
A|---------------------------------------------------------------------------|
E|---------------------------------------------------------------------------|
Guitar 1 plays once, then Guitar 2 harmonizes (perfect if you have a looper pedal)
When guitar 2 joins, each note is played much more than what I'm showing, but you have all the notes

[Guitar 2]
e|-------------------8----10-7-8-5-------------------------------------------|
B|-12-8--10-7--12-8----7-----------12-8-10-7---------------------------------|
G|---------------------------------------------------------------------------|
D|---------------------------------------------------------------------------|
A|---------------------------------------------------------------------------|
E|---------------------------------------------------------------------------|
Play each note a bunch of times really fast, this just gives you what the notes are


e|---------------------------------------------------------------------------|
B|---------------------------------------------------------------------------|
G|---------------------------------------------------------------------------|
D|---2-2---8-8---2-2---8-8---------------------------------------------------|
A|---2-2---8-8---2-2---8-8---------------------------------------------------|
E|-0-0-0-0-6-6-0-0-0-0-6-6---------------------------------------------------|
Here you can use the 6th fret of the E, or the 1st fret of the A, whatever is easier

[Instrumental 2]
e|----------------------------------------------------------------------|
B|----------------------------------------------------------------------|
G|-8-8-8-8-8-8-5-5-5-4-4-4----------------------------------------------|
D|-8-8-8-8-8-8-5-5-5-4-4-4-2---------2---------------------2----------1-|
A|-6-6-6-6-6-6-3-3-3-2-2-2----------------------2-----------------------|
E|---------------------------0-0-3-0----0-0-3-0----0-0-3-0----0-0-3-0---|


e|--------------------------------------------------------------------------------------|
B|--------------------------------------------------------------------------------------|
G|--------------------------------------------------------------------------------------|
D|---------1----------4----------4----------5----------5----------7----------9----------|
A|-2-2-3-2----2-2-3-2----2-2-3-2----2-2-3-2-------------------------------------2-2-3-2-|
E|---------------------------------------------0-0-3-0----0-0-3-0----0-0-3-0------------|(repeat)


e|---------------------------------------------------------------------------|
B|---------------------------------------------------------------------------|
G|---------------------------------------------------------------------------|
D|---------------------------------------------------------------------------|
A|-8-8-8-9-9-9-10-10-10-11-11-11-12-12-12------------------------------------|
E|---------------------------------------------------------------------------|
There is a video of Aaron recording the bass, and he played it with these notes,
it will sound a little different than the song since there is a harmony guitar for it.

[Bridge]
e|-------------------------/--------------------------------------------------|
B|-------------------------/--------------------------------------------------|
G|-2-----2-----2-----5-----/--------------------------------------------------|
D|-2--2--2--2--2--3--5--2--/-3-3-3-3-2--3-3-3-3-2--3-3-3-3-3-5-3-2------------|
A|-0--2--0--2--0--3--3--2--/-3-3-3-3-2--3-3-3-3-2--3-3-3-3-3-5-3-2------------|
E|----0-----0-----1-----0--/-1-1-1-1-0--1-1-1-1-0--1-1-1-1-1-3-1-0------------|
Repeat this first section,  second time play this instead of the last open E chord
Here are the chords, you can figure out the rhythm, it is very easy.
When it repeats, the rhythm changes, so listen for that.

[Outro]
e|--------------------------------------------------------------------------------|
B|--------------------------------------------------------------------------------|
G|----------------------7---12-9--------------------------------------------------|
D|----------------7-9---------------12-12-12-12-9-9-9--7-7-7-7-5-3-2--------------|
A|---5-7---10-7---------------------12-12-12-12-9-9-9--7-7-7-7-5-5-2--------------|
E|-0-----0------0-----0---0-------0-10-10-10-10-7-7-7--5-5-5-5-3-3-0--------------|

Hidden deep in the Sumatran jungle
Lives the mystical titan arum
The natives call it "bunga bangkai"
A behemoth among all plants
Strange enough that years pass before it even flowers
Stranger still that the flower emits
The putrid stench of rotting flesh
Bunga bangkai! [4x]

Like the titan arum,
You only show your good side every few years
On the inside like a rotting corpse,
On the outside like a flowering cadaver
The heart is wicked and deceitful
Magnificent spectral florescence hides the inner sinful man

Jungle orphan hindered at noon, never peering out,
Calmly hovers over Nusa Tenggara

Out of the same mouth comes blessing and cursing
Out of the same heart comes beauty and ugliness
The very thing that I want to do, I end up doing the opposite
Out of the same mouth comes building up and tearing down
Out of the same heart comes kindness and cruelty
The very thing that I want to do, I end up doing the opposite

            
            
Suggest correction
Creating personal tab
Creating personal tab
You can edit any tab online and save it as your Personal.

You can edit, replace or remove any tab part or add personal notes – all changes will be seen only by you.

Personal tabs can be accessed anytime from any device, even offline.
Learn more »
Give kudos to tab author, rate the tab!
1 2 3 4 5
comments
print report bad tab
guest
You may want to rate the tab now too:
select rating
Wanna post a correction for this tab? Suggest correction