Oops, an error
Loading. Please wait.

Air Guitar tab

version 3
version 3

Whole song

Interactive

1,345 views 1 this week
1 commentread comment
1 2 3 4 5
1 last vote to show rating
add to favorites
×
Save as Personal and add changes to this tab that will be seen only by you. Learn more ›
×
You can save this tab as Personal to edit and correct it or add notes. All changes will be seen only by you. Learn more »
launch autoscroll
font size
0
reset
how to read this tab
guitar tuner
edit
Autoscroll
slow
fast
+/-
esc
set tempo
stop
Author
Band: Towers Of London
Song: Air Guitar
Album: Blood, Sweat & Towers
Year: 2006
Tuning: Standard

Tabbed by grouch593

Listen to the song for strumming patterns and how many times to play
each note, etc...


Intro:

Guitar 1
------------------|
------------------|
-5----------------|
-5----------------|
-3----------------|
------------------|
(Palm mute)

Then

Guitar 2
---------------------------|
---------------------------|
-12--12---10--9-9---10-----|
-x---x----x---x-x---x------|
-10--10---8---7-7---8------|  x2
---------------------------|


-----------------------------8----8----8------------|
-----------------------------11b--11b--11brbrb------|
-12--12---10--9-9---10------------------------------|
-x---x----x---x-x---x-------------------------------|
-10--10---8---7-7---8-------------------------------|
----------------------------------------------------|

Pre Verse Riff:
(Play 2 Times Through)

Guitars 1 and 2
-------------------------------|
-------------------------------|
-10----------------------------|
-10---10---10--10--10--10------|        x3
-8----10---10--10--10--10------|
------8----8---8---8---8-------|

------------------------------------------------------------------------------|
------------------------------------------------------------------------------|
-10--------------------------------10---10-10-10-10-10------------------------|
-10---10---10--10--10--10--10------10---10-10-10-10-10--12--12-12-12-12-------|
-8----10---10--10--10--10--10------8----8--8--8--8--8---12--12-12-12-12-------|
------8----8---8---8---8---8----------------------------10--10-10-10-10-------|

Verse 1:

-----------------------------------------------------------------|
-----------------------------------------------------------------|
-10---------------10------------10-------------------------------|
-10--10--10-------10-10--10-----10-10--10-----8-----3------------|
-8---10--10-------8--10--10-----8--10--10-----8-----3------------|
-----8---8-----------8---8---------8---8------6-----1------------|
        (Pm)            (Pm)          (Pm)                            
         12x             12x           12x

(Both guitars play this ^ but Guitar 2 does a pickslide into Bb)

-----------------------------------------------|
-----------------------------------------------|
-10---------------10------------10-------------|
-10--10--10-------10-10--10-----10-10--10------|
-8---10--10-------8--10--10-----8--10--10------|
-----8---8-----------8---8---------8---8-------|
        (Pm)            (Pm)          (Pm)                           
         12x             12x           12x


Chorus 1:

(Guitar 2 does a pick slide into chorus)

Guitars 1 and 2
-------------------------------|
-------------------------------|
-10----------------------------|
-10---12----10----9---7--------| x2
-8----12----10----9---7--------|
------10----8-----7---5--------|


------------------------------|
------------------------------|
-10-----12--------------------|
-10-----12--------------------|
-8------10--------------------|
------------------------------|


Verse 2:

-----------------------------------------------------------------|
-----------------------------------------------------------------|
-10---------------10------------10-------------------------------|
-10--10--10-------10-10--10-----10-10--10-----8-----3------------|
-8---10--10-------8--10--10-----8--10--10-----8-----3------------|
-----8---8-----------8---8---------8---8------6-----1------------|
        (Pm)            (Pm)          (Pm)                           
         12x             12x           12x

(Both guitars play this but Guitar does a pick slide into Bb)

-----------------------------------------------|
-----------------------------------------------|
-10-------------10------------10---------------|
-10--10---------10-10---------10-10------------|
-8---10---------8--10---------8--10------------|
-----8--------------8------------8-------------|
   (Let ring)      ( )          ( )

Chorus 2:

(Guitar 2 plays pick slide and scratches going into chorus)

Guitars 1 and 2
-------------------------------|
-------------------------------|
-10----------------------------|
-10---12----10----9---7--------| x2
-8----12----10----9---7--------|
------10----8-----7---5--------|

Bridge 1:

-----------------------------------------------------|
-----------------------------------------------------|
-10--------12---9-------10---------------------------|
-10---12---12---9-------10--12---10----9---7---------|
-8----12---10---7-------8---12---10----9---7---------|
------10--------------------10---8-----7---5---------|

End 1:
             <  Guitar 1 only   >
-------------------------------------|
-------------------------------------|
-10---12-----------------------------|
-10---12-------8/10--10-10--10-10----|
-8----10-------8/10--10-10--10-10----|
---------------6/8---8--8---8--8-----|
              <      8x         >


End 2:

Guitars 1 and 2
--------------------------|
--------------------------|
--------------------------|
-5-----5-5-5--------------|
-5-----5-5-5--------------|
-3-----3-3-3--------------|

Break:
(Pretty much same as intro except no palm muting on C5)

Guitar 1

(Play C5 Over entire break except for very last bend of Guitar 2 where you
play a G5. Listen to the song - you'll hear it)

------------------|
------------------|
-5----------------|
-5----------------|
-3----------------|
------------------|

Guitar 2

---------------------------|
---------------------------|
-12--12---10--9-9---10-----|
-x---x----x---x-x---x------|
-10--10---8---7-7---8------|  x2
---------------------------|


-----------------------------8----8----8------------|
-----------------------------11b--11b--11brbrb------|
-12--12---10--9-9---10------------------------------|
-x---x----x---x-x---x-------------------------------|
-10--10---8---7-7---8-------------------------------|
----------------------------------------------------|


Bridge 2:

Guitars 1 and 2
-----------------------------------------------------|
-----------------------------------------------------|
-10--------12---9-------10---------------------------|
-10---12---12---9-------10--12---10----9---7---------|
-8----12---10---7-------8---12---10----9---7---------|
------10--------------------10---8-----7---5---------|


(Another cleaner sounding guitar can be heard playing this over
the first F5 of Bridge 2):

-----------|
-8---------|
-10--------|
-10--------|
-----------|
-----------|

Chorus 3:

Guitars 1 and 2
-------------------------------|
-------------------------------|
-10----------------------------|
-10---12----10----9---7--------| x3
-8----12----10----9---7--------|
------10----8-----7---5--------|


------------------------------|
------------------------------|
-10-----12--------------------|
-10-----12--------------------|
-8------10--------------------|
------------------------------|


Outro:

Guitar 1
-------------------------------|
-------------------------------|
-10----------------------------|
-10---10---10--10--10--10------|     x2
-8----10---10--10--10--10------|
------8----8---8---8---8-------|


Guitar 2

-8------|
-11b----|
--------|
--------|
--------|   x4
--------|

End 3

(Guitar 1)
---------------------------|
---------------------------|
-10------------------------|
-10---10-------------------|
-8----10-------------------|
------8--------------------|

(Slide fingers on strings after last chord)

            
            
Suggest correction
Creating personal tab
Creating personal tab
You can edit any tab online and save it as your Personal.

You can edit, replace or remove any tab part or add personal notes – all changes will be seen only by you.

Personal tabs can be accessed anytime from any device, even offline.
Learn more »
Give kudos to tab author, rate the tab!
1 2 3 4 5
comments
print report bad tab
1 comment total.
0 reply
matt_is_cool 10 Aug 17, 2008 04:40 AM

perfect tab *****

guest
You may want to rate the tab now too:
select rating
Wanna post a correction for this tab? Suggest correction