Oops, an error
Loading. Please wait.

Down In The Streets Tab

338 views 1 this week
no commentswrite comment
1 2 3 4 5
please rate
add to favorites
launch autoscroll
font size
0
reset
how to read this tab
guitar tuner
Tab Pro tools
  • play this tab
  • loop segment
  • change instrument
  • show fretboard
  • metronome
×
Best way to learn
"Down In The Streets"
Autoscroll
slow
fast
+/-
esc
set tempo
stop
Contributor
Difficulty
intermediate
-------------------------------------------------------------------------------
                             Down In The Streets - Towers Of London
-------------------------------------------------------------------------------
Tabbed by: cal?!
Email: whats_the_story13@hotmail.co.uk
Prettey sure it's rite but not too sure bout the solo
Tuning: EADGBe

INTRO X4
e|-5-5-6-3--5-6-3--5-6-3--66-------------------------------------------------|
B|-5-5-6-3--5-6-3--5-6-3--66-------------------------------------------------|
G|-5-5-6-3--5-6-3--5-6-3--66-------------------------------------------------|
D|-7-7-8-5--7-8-5--7-8-5--88-------------------------------------------------|
A|-7-7-8-5--7-8-5--7-8-5--88-------------------------------------------------|
E|-5-5-6-3--5-6-3--5-6-3--66-------------------------------------------------|

Verse X2
e|-666666666666-5563-563-563-66----------------------------------------------|
B|-666666666666-5563-563-563-66----------------------------------------------|
G|-666666666666-5763-763-563-66----------------------------------------------|
D|-888888888888-7785-785-785-88----------------------------------------------|
A|-888888888888-7785-785-785-88----------------------------------------------|
E|-666666666666-5563-563-563-66----------------------------------------------|

Last 2 lines of Verse X2
e|-666666666666-8-8-8-8-8-8-8-8-8-8-8-8---5563-563-563-66--------------------|
B|-666666666666-8-8-8-8-8-8-8-8-8-8-8-8---5563-563-563-66--------------------|
G|-666666666666-8-8-8-8-8-8-8-8-8-8-8-8---5763-763-563-66--------------------|
D|-888888888888-101010101010101010101010--7785-785-785-88--------------------|
A|-888888888888-101010101010101010101010--7785-785-785-88--------------------|
E|-666666666666-8-8-8-8-8-8-8-8-8-8-8-8---5563-563-563-66--------------------|
Solo
e|-33-------------66-----------------------33-------------------12b12b12b12b-|
B|-33-12b-12-10-8-66-12b-12-10-8-----------33-12b-12-10-8--------------------|
G|-33-------------66-------------12-10p8---33-------------12p10--------------|
D|-55-------------88-----------------------55--------------------------------|
A|-55-------------88-----------------------55--------------------------------|
E|-33-------------66-----------------------33--------------------------------|

e|---------------------------------------------------------------------------|
B|----12b-12-10-8------------------------------------------------------------|
G|----------------12-10-10-8--12p10-12p10-12p10-12p10------------------------|
D|---------------------------------------------------------------------------|
A|---------------------------------------------------------------------------|
E|---------------------------------------------------------------------------|

Verse X2
e|-666666666666----5763-763-563-66-------------------------------------------|
B|-666666666666----5763-763-563-66-------------------------------------------|
G|-666666666666----5763-763-563-66-------------------------------------------|
D|-888888888888----7785-785-785-88-------------------------------------------|
A|-888888888888----7785-785-785-88-------------------------------------------|
E|-666666666666----5563-563-563-66-------------------------------------------|

X2
e|-666666666666-8-8-8-8-8-8-8-8-8-8-8-8--|5563-563-563-66--------------------|
B|-666666666666-8-8-8-8-8-8-8-8-8-8-8-8--|5563-563-563-66--------------------|
G|-666666666666-8-8-8-8-8-8-8-8-8-8-8-8--|5763-763-563-66--------------------|
D|-888888888888-101010101010101010101010-|7785-785-785-88--------------------|
A|-888888888888-101010101010101010101010-|7785-785-785-88--------------------|
E|-666666666666-8-8-8-8-8-8-8-8-8-8-8-8--|5563-563-563-66--------------------|

Solo (SAME AS EARLIER)

Then fuck around with the first part of the solo

e|-33333333-44-55555555-44-77777777-88---9-9-9-9-9-9-9-9--1010101010101010---|
B|-33333333-44-55555555-44-77777777-88---9-9-9-9-9-9-9-9--1010101010101010---|
G|-33333333-44-55555555-44-77777777-88---9-9-9-9-9-9-9-9--1010101010101010---|
D|-55555555-66-77777777-88-99999999-1010-1111111111111111-1212121212121212---|
A|-55555555-66-77777777-88-99999999-1010-1111111111111111-1212121212121212---|
E|-33333333-44-55555555-66-77777777-88---9-9-9-9-9-9-9-9--1010101010101010---|

X2
e|-5-5-6-3--5-6-3--5-6-3--66-------------------------------------------------|
B|-5-5-6-3--5-6-3--5-6-3--66-------------------------------------------------|
G|-5-5-6-3--5-6-3--5-6-3--66-------------------------------------------------|
D|-7-7-8-5--7-8-5--7-8-5--88-------------------------------------------------|
A|-7-7-8-5--7-8-5--7-8-5--88-------------------------------------------------|
E|-5-5-6-3--5-6-3--5-6-3--66-------------------------------------------------|

X3
e|-666666666666-8-8-8-8-8-8-8-8-8-8-8-8--------------------------------------|
B|-666666666666-8-8-8-8-8-8-8-8-8-8-8-8--------------------------------------|
G|-666666666666-8-8-8-8-8-8-8-8-8-8-8-8--------------------------------------|
D|-888888888888-101010101010101010101010-------------------------------------|
A|-888888888888-101010101010101010101010-------------------------------------| 
E|-666666666666-8-8-8-8-8-8-8-8-8-8-8-8--------------------------------------|


e|-5-5-6-3--5-6-3--5-6-3--66-5-5-6-3--5-6-3-3--------------------------------|
B|-5-5-6-3--5-6-3--5-6-3--66-5-5-6-3--5-6-3-3--------------------------------|
G|-5-5-6-3--5-6-3--5-6-3--66-5-5-6-3--5-6-3-3--------------------------------|
D|-7-7-8-5--7-8-5--7-8-5--88-7-7-8-5--7-8-5-5--------------------------------|
A|-7-7-8-5--7-8-5--7-8-5--88-7-7-8-5--7-8-5-5--------------------------------|
E|-5-5-6-3--5-6-3--5-6-3--66-5-5-6-3--5-6-3-3--------------------------------|



| /  slide up
| \  slide down
| h  hammer-on
| p  pull-off
| ~  vibrato
| +  harmonic
| x  Mute note
===============================================================================
comments
We did not receive enough feedback on this tab! Please rate:
print report bad tab
1 2 3 4 5
I want to post or [tab]
guest
You may want to rate the tab now too:
select rating
Please do not post tabs as comments. Select "correction" instead!