Oops, an error
Loading. Please wait.

Im A Rat bass

version 1
version 1

Whole song

Interactive

883 views 1 this week
2 commentsread comments
1 2 3 4 5
2 more votes to show rating
add to favorites
×
Save as Personal and add changes to this tab that will be seen only by you. Learn more ›
×
You can save this tab as Personal to edit and correct it or add notes. All changes will be seen only by you. Learn more »
launch autoscroll
font size
0
reset
guitar tuner
edit
Autoscroll
slow
fast
+/-
esc
set tempo
stop
Difficulty
After the guitar intro is played twice start with this

INTRO 1

|--------------------------------------------------------------------------------|
|--------------------------------------------------------------------------------|
|--------------5----------------------------------5------------------------------|
|-----7----------------5--------7--------7----------------5-------7777777777-----|

Then play this

INTRO 2
|-------------|
|-------------|
|-------------|
| -5-5-5-7--7-|

x4

VERSE

|----------------------------------------------------------------|
|----------------------------------------------------------------|
|-------------55555555555----------------------------------------|
|777777777777------------555555555555-777777777777---------------|

Bridge.

|----------------------------------------------------------|
|----------------------------------------------------------|
|-----------------55-5555----------------------------------|
|-77-7777--------------------------55-5555--------77-7777--|

Chorus:

|-------------------------------------------------------------|
|-------------------------------------------------------------|
|----------------5-55-55-55-55--------------------------------|
|-7-77-77-77-77----------------5-55-55-55-55--7-77-77-77-77---|

Chorus outro:

|----------------------------------------------------------------------|
|----------------------------------------------------------------------|
|-------------55555555555----------------------------------------------|
|777777777777------------555555555555-777777777777----5-5-5-77---------|

VERSE

|----------------------------------------------------------------|
|----------------------------------------------------------------|
|-------------55555555555----------------------------------------|
|777777777777------------555555555555-777777777777---------------|

Bridge.

|----------------------------------------------------------|
|----------------------------------------------------------|
|-----------------55-5555----------------------------------|
|-77-7777--------------------------55-5555--------77-7777--|

Chorus:

|-------------------------------------------------------------|
|-------------------------------------------------------------|
|----------------5-55-55-55-55--------------------------------|
|-7-77-77-77-77----------------5-55-55-55-55--7-77-77-77-77---|

Chorus outro:

|----------------------------------------------------------------------|
|----------------------------------------------------------------------|
|-------------55555555555----------------------------------------------|
|777777777777------------555555555555-777777777777----5-5-5-77---------|


Guitar Solo


|----------------------------------------------------------------|
|----------------------------------------------------------------|
|-------------55555555555----------------------------------------|
|777777777777------------555555555555-777777777777---------------|

And then for the "straight from the gutter part" play

|----------------------------------------------------------------|
|----------------------------------------------------------------|
|-------------55555555555----------------------------------------|
|777777777777------------555555555555-777777777777---------------|
x2

and finally play this

|-------------------------------------------------------------|
|-------------------------------------------------------------|
|----------------5-55-55-55-55--------------------------------|
|-7-77-77-77-77----------------5-55-55-55-55--7-77-77-77-77---|

|-------------------------------------------------------------|
|-------------------------------------------------------------|
|----------------5-55-55-55-55--------------------------------|
|-7-77-77-77-77----------------5-55-55-55-55--7-77-77-77-77---|


And thats it
Thanks :)
Suggest correction
Creating personal tab
Creating personal tab
You can edit any tab online and save it as your Personal.

You can edit, replace or remove any tab part or add personal notes – all changes will be seen only by you.

Personal tabs can be accessed anytime from any device, even offline.
Learn more »
Give kudos to tab author, rate the tab!
1 2 3 4 5
comments
print report bad tab
2 comments total.
0 reply
grant_roe 10 Feb 17, 2007 08:20 AM

pretty poor, alot is wrong.

0 reply
G.I.R.L 91 Apr 22, 2007 03:30 AM

poor

guest
Wanna post a correction for this tab? Suggest correction