Oops, an error
Loading. Please wait.

King tab

version 2
version 2

Whole song

173 views 1 this week
no commentswrite comment
1 2 3 4 5
3 more votes to show rating
add to favorites
×
Save as Personal and add changes to this tab that will be seen only by you. Learn more ›
×
You can save this tab as Personal to edit and correct it or add notes. All changes will be seen only by you. Learn more »
launch autoscroll
font size
0
reset
how to read this tab
guitar tuner
edit
Autoscroll
slow
fast
+/-
esc
set tempo
stop
Difficulty
Tabbed by: BenC
Email:fifty_p_prostitute@hotmail.co.uk

noticed the other tab was naff and didn’t have any kind of a solo in it so thought I’d 
it a go. Haven’t got full solo’s yet just useful ones.

Tuning: Standard

Intro
e|----------------------------------------------------------------------------|
B|-------------------------------7---------8-------9-7-9-7-9-7--9-7-----------|
G|---8-9----6-8/9----11--------8---8-6-6/8---8-6/8------------------8-8-6---6-|
D|-9-8-9--9-6-8/9-9--11---------------------------------------------------9---|
A|-9-6-7--9-4-6/7-9--9--------------------------------------------------------|
E|-7------7-------7-----------------------------------------------------------|
Work out strumming pattern, its not hard.
e|---------------------------------------------------------------------------|
B|---------------------------------------------------------------------------|
G|-6/8-9—9p8h9p8h9p8-h9p8----------------------------------------------------|
D|-----------------------9---------------------------------------------------|
A|---------------------------------------------------------------------------|
E|---------------------------------------------------------------------------|


e|---------------------------------------------------------------------------|
B|---------------------------------------------------------------------------|
G|---------------------------------------------------------------------------|
D|-12/14-14—14--12/14-14-14—-14/12/9-----------------------------------------|
A|-12/14-14—14--12/14-14-14—-14/12/9-----------------------------------------|
E|-10/12-12—12--10/14-12-12-—12/10/7-----------------------------------------|
	Chorus riff *4

e|---------------------------------------------------------------------------|
B|---------------------------------------------------------------------------|
G|------8-8--9-9---------------5---7------8-8-9-9----------------------------|
D|-9-9--8-8--9-9--9-9—-5/7-5/7---7---9-9--8-8-9-9--12-14--12-14—-12-14--14---|
A|-9-9--6-6--7-7--9-9----------------9-9--6-8—7-7--12-14--12-14--12-14--14---|
E|-7-7--6-6-------7-7----------------7-7--6-6------10-12--10-12--10-12--12---|
     *    *    *    *                  *    *   *

	^palm muted notes are repeated to rhythm of song ^
^verse^

Chorus
Verse
Chorus

Solo ( not here sorry )

Intro
Chorus *2
e|---------------------------------------------------------------------------|
B|----------------------8--------------------------------------------------8-|
G|------------8-9-10-11-7------------------------------------12------------7-|
D|-9-10-11-12-8-9-10-11-5---9------------------note can play-12-instead of-5-|
A|-9-10-11-12-6-7-8--9------9--------------------------------10--------------|
E|-7-8--9--10---------------7------------------------------------------------|


| /  slide up
| \  slide down
| h  hammer-on
| p  pull-off
| ~  vibrato
| +  harmonic
| x  Mute note

            
            
Suggest correction
Creating personal tab
Creating personal tab
You can edit any tab online and save it as your Personal.

You can edit, replace or remove any tab part or add personal notes – all changes will be seen only by you.

Personal tabs can be accessed anytime from any device, even offline.
Learn more »
Give kudos to tab author, rate the tab!
1 2 3 4 5
comments
print report bad tab
guest
Wanna post a correction for this tab? Suggest correction