Oops, an error
Loading. Please wait.

For The Sake Of The Song Tab

version 2
version 2

Whole song

Interactive

1,709 views 12 this week
no commentswrite comment
1 2 3 4 5
please rate
add to favorites
launch autoscroll
font size
0
reset
how to read this tab
guitar tuner
Autoscroll
slow
fast
+/-
esc
set tempo
stop
Help us to improve Ultimate-Guitar.com Take our survey!
×
Author
Capo
2nd fret
Tabs by Leon 
Capo 2nd fret (tabs relative to the capo)
Tuning: Standard

Intro

     >               >       
E |------0-----0---------2-4-4h5p4-4-2p0--|
B |----2-----2-----2---3------------------|
G |--------------2------------------------|  2x
D |--------2---------0--------------------|
A |--0------------------------------------|
E |---------------------------------------|


     >               >            >               >
E |------0-----0------------4-4-2-----0-----0---------0-----0------|
B |----2-----2-----0---3/5--5-5-3---2-----2---------2-----2-----2--|
G |--------------2----------------------------2---------------2----|  
D |--------2----------------------------2---------------2----------|
A |--0----------------------------0---------------0----------------|
E |------------------0--------------------------0------------------|


Why does she sing her sad songs for me, I'm not the one
To tenderly bring her soft sympathy, I've just begun

     >               >               >
E |------0-----0---------2-----2---------0-----0---------0-----0------|
B |----2-----2-----2---3-----3-----3---2-----2---------2-----2-----2--|
G |--------------2---------2-----2---------------2---------------2----|  2x
D |--------2---------0---------------------2---------------2----------|
A |--0-------------------------------0---------------0----------------|
E |------------------------------------------------0------------------|


To see my way clear and it's plain if I stop I will fall

     >               >               >                >
E |------0-----0---------0-----0---------0-----0----------0-----0------|
B |----0-----0-----0---0-----0-----0---2-----2----------2-----2-----2--|
G |----------------------------------------------2----------------2----|  
D |----------------------------------------2--------2-------2----------|
A |--------2---------------2---------0----------------0----------------|
E |--0-----------4---0-----------4-------------------------------------|


I can lay down a tear for her pain, just a tear and that's all

     >               >               >                >
E |------0-----0---------0-----0---------0-----0---------3-----3------|
B |----0-----0-----0---0-----0-----0---2-----2-----2---2-----2-----2--|
G |----------------------------------------------2---------------2----|  
D |----------------------------------------2---------------2----------|
A |--------2---------------2---------0---------------0----------------|
E |--0-----------4---0-----------4------------------------------------|


What does she want me to do
She says that she knows that moments are rare
I suppose that it's true
Then on she goes to say I don't care and she

     >               >               >               >
E |------2-----2---------0-----0---------2-----2---------0-----0------|
B |----3-----3-----3---2-----2-----2---3-----3-----3---0-----0-----0--|
G |--------2-----2---------------2---------2-----2---------------1----| 2x
D |--0---------------------2---------0---------------------2----------|
A |------------------0------------------------------------------------|
E |--------------------------------------------------0----------------|


knows that I do                                     Maybe she just has to

     >               >               >               >
E |------2-----2---------0-----0---------0-----0---------0-----0------|
B |----3-----3-----3---2-----2---------2-----2-----0---0-----0-----0--|
G |--------2-----2---------------2---------------2--------------------|
D |--0---------------------2---------------2---------------------2----|
A |------------------0---------------0---------------------2----------|
E |--------------------------------0-----------------0----------------|


sing for the sake of the song                       Who do I think 

     >               >               >               >
E |------0-----0---------0-----0---------0-----0---------0-----0------|
B |----0-----0-----0---2-----2---------2-----2-----0---0-----0-----0--|
G |------------------------------2---------------2--------------------|
D |--------------2---------2---------------2---------------------2----|
A |--------2---------0---------------0---------------------2----------|
E |--0-----------------------------0-----------------0----------------|

that I am to decide that she's wrong

     >               >               
E |------0-----0---------0-----0-------|
B |----0-----0-----0---2-----2------2--|
G |------------------------------2-----|    > Intro
D |--------------2---------2-----------|
A |--------2---------0-----------------|
E |--0---------------------------------|


She'd like to think that I'm cruel but she knows that's a lie for I would be
No more than a tool if I allowed her to cry all over me
My sorrow is real even though I can't change my plans
If she could see how I feel then I know that she'd understand
Does she actually think I'm to blame
Does she really believe that some word of mine
Could relieve all her pain
Can't she see that she grieves just because she's been blindly deceived
By her shame
Maybe she just has to sing for the sake of the song
Who do I think that I am to decide that she's wrong

Nothin's what it seems, maybe she'll start someday to realize
If she abandons her dreams then all the words she can say are only lies
When will she see that to gain is only to lose
All that she offers me are her chains, I got to refuse
It's only to herself that she's lied
She likes to pretend there's something that she should defend with her pride
I don't intend to stand her and be the friend from whom she must hide
Maybe she just has to sing for the sake of the song
Who do I think that I am to decide that she's wrong


Suggest correction
What's this?
You can suggest a correction to this tab. Community and Mods will review your correction and vote to approve or reject it.
comments
We did not receive enough feedback on this tab! Please rate:
print report bad tab
1 2 3 4 5
guest
You may want to rate the tab now too:
select rating
Please do not post tabs as comments. Select "correction" instead!