Oops, an error
Loading. Please wait.

If I Needed You chords

version 3
version 3

Whole song

  • This contains the intro picking part, the entire s... Show more

Interactive

658 views 9 this week
no commentswrite comment
1 2 3 4 5
x 4
add to favorites
×
Save as Personal and add changes to this tab that will be seen only by you. Learn more ›
×
You can save this tab as Personal to edit and correct it or add notes. All changes will be seen only by you. Learn more »
launch autoscroll
font size
0
reset
transpose
0
reset
simplify chords
display chords
guitar tuner
edit
Autoscroll
slow
fast
+/-
esc
set tempo
stop
About this tab version
This contains the intro picking part, the entire song with chord changes and the ending lick. Was this info helpful? Yes No
Strumming
There is no strumming pattern for this song yet. and get +5 IQ
Note: The Intro is played throughout the song. Don't try to strum chords with this song.
For the Intro and Interlude play the Intro twice. The Outro is the Intro, plus the lick at the end.

 Gsus4    C     D/F#
E|---|  |---|  |-0-|
B|-1-|  |-1-|  |-3-|
G|-0-|  |---|  |-2-|
D|-0-|  |-2-|  |---|
A|---|  |-3-|  |---|
E|-3-|  |---|  |-2-|


Townes Van Zandt – If I Needed You
Capo IV

[Intro]
E|-------------------|-------------------|----------------------|
B|------------0------|-0h1----0----------|-------0------1-------|
G|------0----------0-|---------------0---|----0---------------0-|
D|----0----------0---|-----0-----------0-|----0------------0----|
A|-------------------|-------------------|----------------------|
E|-3-------3---------|-3----------3------|-3---------3----------|

E|-------------------|-------------------|-------0--------------|
B|-3----------1----0-|-------0----1------|-3------------3----1--|
G|-------0-----------|----0------------0-|----------------------|
D|----0----------0---|----0----------0---|----0------------0----|
A|-------------------|-------------------|----------------------|
E|-3--------3--------|-3--------3--------|-3---------3----------|

E|--------0----------|-----------0-------|----------------------|
B|-----------------0-|------3----------0-|----------0-----------|
G|----0----------0---|----2---------2----|------------------0---|
D|------2----0h2-----|-0-----------------|----0---------0-------|
A|-3-----------------|-------------------|----------------------|
E|-------------------|---------2---------|-3-----3--------------|

     Gsus4
If I needed you, would you come to me?
                  C      D/F#    Gsus4
Would you come to me and ease my pain?

If you needed me, I would come to you
             C           D/F#      Gsus4
I'd swim the seas for to ease your pain

             Gsus4
Well, in the night forlorn, oh, the morning's born
                C               D/F#      Gsus4
And the morning shines with the lights of love

And you will miss sunrise if you close your eyes
               C        D/F#     Gsus4
And that would break my heart in two


[Interlude]

           Gsus4 
The lady's with me now since I showed her how
           C    D/F#    Gsus4
To lay her lily hand in mine

Loop and Lil agree, she's a sight to see
           C       D/F#    Gsus4
A treasure for the poor to find

      Gsus4
If I needed you, would you come to me?
                  C      D/F#    Gsus4
Would you come to me and ease my pain?

If you needed me, I would come to you
             C           D/F#      Gsus4
I'd swim the seas for to ease your pain


[Outro]
E|-----------------|
B|-----------------|
G|-------------0---|
D|---------0-2-----|
A|-----0-2---------|
E|-3---------------|

            
            
Suggest correction
Creating personal tab
Creating personal tab
You can edit any tab online and save it as your Personal.

You can edit, replace or remove any tab part or add personal notes – all changes will be seen only by you.

Personal tabs can be accessed anytime from any device, even offline.
Learn more »
comments
print report bad tab
guest
You may want to rate the tab now too:
select rating
Wanna post a correction for this tab? Suggest correction