Oops, an error
Loading. Please wait.

Nine Pound Hammer Tab

5,227 views 24 this week
no commentswrite comment
1 2 3 4 5
please rate
add to favorites
launch autoscroll
font size
0
reset
how to read this tab
guitar tuner
Tab Pro tools
  • play this tab
  • loop segment
  • change instrument
  • show fretboard
  • metronome
Autoscroll
slow
fast
+/-
esc
set tempo
stop
Contributor
-------------------------------------------------------------------------------
                            NINE POUND HAMMER - Townes Van Zandt
-------------------------------------------------------------------------------
Tabbed by:  wrnking

From the album "Live At The Old Quarter"

Tuning:  standard
capo on 4th


e|------------3-----------------------|--------------------------------------|
B|------------------------------------|--------------------------------------|
G|--0---0---0-----0-----0---0h2-------|--------------------------------------|
D|------0-------0-------0-------0-----|--------------------------------------|
A|------------------------------------|--------------------------------------|
E|--3-------3-------3-------3---------|--------------------------------------|

    1   +   2   +   3   +   4   +         1   +   2   +   3   +   4   +


INTRO (2X)
e|--------------------0---0-----------|--------------------------------------|
B|--1-----1---1---1-----------3-------|-------------3---1--------------------|
G|------0-------0-------0-------0-----|-----2-------------------2---2--------|
D|------------------------------------|-------3-------3-------3-------0------|
A|--3---------------3-----------------|--------------------------------------|
E|----------3---------------3---------|---1-------1-------1-------1----------|
 
    1   +   2   +   3   +   4   +         1   +   2   +   3   +   4   +


e|----------3-0-------------0---------|-----0-------0------------------------|
B|------------------0---3-----3-------|---1-----1-------1---1---1---1--------|
G|--------0-----------0---------------|-------0-------0----------------------|
D|------2-------2-------0-------0-----|-------------------------------0------|
A|--3-------3-------------------------|---3---------------3------------------|
E|------------------3-------3---------|-----------3-----------3---3----------|

    1   +   2   +   3   +   4   +         1   +   2   +   3   +   4   +


VERSE (repeated many times)
e|----0-------0-------0-----0---------|--------------------------------------|
B|--------1-------1-------1---3-------|---1---------3-----1-----1------------|
G|------0-------0-------0-------0-----|---------2-------------------2--------|
D|------------------------------------|-------3-------3-------3-------3------|
A|--3---------------3-----------------|--------------------------------------|
E|----------3---------------3---------|---1-------1-------1-------1----------|

    1   +   2   +   3   +   4   +         1   +   2   +   3   +   4   +


e|----------3-0-------------0---------|-----0------0-------------------------|
B|------------------------3---3-------|---1-----1-------1--------------------|
G|--------0---------0-----------------|-------0-------0-----0-------0--------|
D|------2-------2-------0-------0-----|-------------------------------0------|
A|--3-------3-------------------------|---3---------------3------------------|
E|------------------3-------3---------|-----------3-----------3---3----------|

    1   +   2   +   3   +   4   +         1   +   2   +   3   +   4   +


BRIDGE (played once, then go back to verse)
e|----0-------0-----0---------0-------|--------------------------------------|
B|--------1-------1---3---1-----------|---1---------1------3----1------------|
G|------0-------0-------0-------0-----|--------h2-------------------2--------|
D|------------------------------------|-------3-------3-------3-------3------|
A|--3---------------3-----------------|--------------------------------------|
E|----------3---------------3---------|---1-------1-------1-------1----------|

    1   +   2   +   3   +   4   +         1   +   2   +   3   +   4   +


e|----------3-0-----------------------|-----0-------0-------3-------3--------|
B|------------------0-----------------|---1-----1-------1--------------------|
G|--------0-----------0-------2-------|-------0-------0-------0-------0------|
D|------2-------2-------0-------0-----|--------------------------------------|
A|--3-------3-------------------------|---3---------------3------------------|
E|------------------3-------3---------|-----------3---------------3----------|

    1   +   2   +   3   +   4   +         1   +   2   +   3   +   4   +


e|--3-----0-----------0---------------|--------------------------------------|
B|------------------------3---1-------|---1-----------------1-------1--------|
G|------0-------0-------0-------0-----|---------2-----------------2----------|
D|------------------------------------|-------3-------3-------3-------3------|
A|--3-------3-------3-------3---------|--------------------------------------|
E|------------------------------------|---1-------1-------1-------1----------|

    1   +   2   +   3   +   4   +         1   +   2   +   3   +   4   +


e|--------------0-------------0-------|-----0------0-------------------------|
B|--------1---------0-----3-----------|---1-----1-------1--------------------|
G|--0---------------------------------|-------0-------0-----0-------0--------|
D|------2-------2-------0-------0-----|-------------------------------0------|
A|--3-------3-------------------------|---3---------------3------------------|
E|------------------3-------3---------|-----------3-----------3---3----------|

    1   +   2   +   3   +   4   +         1   +   2   +   3   +   4   +


************************************

| /   slide up
| \   slide down
| h   hammer-on
| p   pull-off
| ~   vibrato
| +   harmonic
| x   Mute note
| b   Bend
| pb  Pre-bend
| br  Bend release
| pbr Pre-bend release
| brb Bend release bend

************************************
comments
We did not receive enough feedback on this tab! Please rate:
print report bad tab
1 2 3 4 5
I want to post or [tab]
guest
You may want to rate the tab now too:
select rating
Please do not post tabs as comments. Select "correction" instead!