Oops, an error
Loading. Please wait.

Nothin chords

1,228 views 81 this week
no commentswrite comment
1 2 3 4 5
3 more votes to show rating
add to favorites
×
Save as Personal and add changes to this tab that will be seen only by you. Learn more ›
×
You can save this tab as Personal to edit and correct it or add notes. All changes will be seen only by you. Learn more »
launch autoscroll
font size
0
reset
transpose
0
reset
display chords
guitar tuner
edit
Autoscroll
slow
fast
+/-
esc
set tempo
stop
About this tab version
This is kindof a mix between Townes Van Zandt and Colter Wall's version of the song. I couldn't exactly peg either version but this fits both. Was this info helpful? Yes No
Strumming
There is no strumming pattern for this song yet. and get +5 IQ
Am: 002210
F:  003211
Em: 022000
[Intro]
   Am                           Am                           F
e|-----------0-----------------|----------0--------------|------1--------1---|
B|---3-------------3p1----1----|---3-----------3p1-----1-|----------1-------1|
G|-------2------2------2------2|------2------2------2----|--0h2---2-------2--|
D|-----2------2------2---------|----2------2------2------|------3-----3------|
A|-0---------------0-----------|--0------------0---------|-------------------|
E|--------0--------------0--3--|--------0------------0---|-------------------|
   Am                 Em                Am   
e|-----------------|------------------|--------------------------------------|
B|-1-------1-------|---0-------0------|--0h1-------1------1-------1----------|
G|------2-------2--|-------0-------0--|--------2-------2------2-------2------|
D|----2-------2----|-----2-------2----|------2-------2------2-------2--------|
A|-0-----0---------|------------------|--0----------------0------------------|
E|-----------------|---0-----3--------|-----------0--------------0-----------|


e|---------------------------------------------------------------------------|
B|--1--------1---------1-----------1-----------------------------------------|
G|--------2---------2--------2-----------2-----------------------------------|
D|-----2---------2--------2-----------2--------------------------------------|
A|--0------------------0-----------------------------------------------------|
E|----------0-------------------0--------------------------------------------|

[Verse 1]
  
  Am
    Hey mama, when you leave
  Am
    Don't leave a thing behind
  F                Am 
      I don't want    nothing
  Em              Am
      I can't use nothing

[Verse 2]

  Am
      Take care into the hall
  Am
      And if you see my friends
  F               Am
      Tell em I'm   fine
  Em            Am 
      Not using nothing

[Verse 3]

  Am
      Almost burned out my eyes
  Am
      And threw my ears down to the floor
  F               Am 
     I didn't see    nothing
  Em               Am
     I didn't hear nothing

[Verse 4]

  Am
     I stood there like a block of stone
  Am
     Knowing all I had to know
  F              Am 
     And nothing    more
  Em             Am 
     Man, that's nothing


[Intro] 

   Am                           Am                           F
e|-----------0----------------|-----------0--------------|------1--------1---|
B|---3-------------3p1-----1--|--3------------3p1-----1--|----------1-------1|
G|-------2-------2-------2----|------2------2-------2----|--0h2---2-------2--|
D|-----2-------2-------2------|----2------2-------2------|------3-----3------|
A|-0---------------0----------|--0------------0----------|-------------------|
E|--------0--------------0---3|----------0----------0----|-------------------|
   Am                 Em                Am  
e|-----------------|------------------|--------------------------------------|
B|-1-------1-------|---0-------0------|--0h1-------1------1-------1----------|
G|------2-------2--|-------0-------0--|--------2-------2------2-------2------|
D|----2-------2----|-----2-------2----|------2-------2------2-------2--------|
A|-0-----0---------|------------------|--0----------------0------------------|
E|-----------------|---0-----3--------|-----------0--------------0-----------|


e|---------------------------------------------------------------------------|
B|--1--------1---------1-----------1-----------------------------------------|
G|--------2---------2--------2-----------2-----------------------------------|
D|-----2---------2--------2-----------2--------------------------------------|
A|--0------------------0-----------------------------------------------------|
E|----------0-------------------0--------------------------------------------|


[Verse 5]

  Am
     Brothers our troubles are
  Am
     Locked in each others arms
  F                 Am
     And you better   pray 
  Em                 Am
     That they never find you

[Verse 6]
  
  Am
      Cause your back ain't strong enough
  Am
      Burdens doublefold
  F                    Am
      They'd crush you  down
  Em            Am     
      Down into nothing

[Verse 7]

  Am
      Being born is going blind
  Am
      And bowing down a thousand times
  F             Am
      To echoes   strung
  Em               Am
      On pure temptation
  
[Verse 8]
  Am
      Sorrow and solitude
  Am
      These are the precious things
  F                Am
      And the only   words
  Em                 Am
      That are worth remembering

[Outro]
   
   Am                           Am                           
e|-----------0----------------|-----------0----------------------------------|
B|---3-------------3p1-----1--|--3------------3p1-----1----------------------|
G|-------2-------2-------2----|------2------2-------2------------------------|
D|-----2-------2-------2------|----2------2-------2--------------------------|
A|-0---------------0----------|--0------------0------------------------------|
E|--------0--------------0---3|----------0----------0------------------------|

************************************

| x   Dead note
| g   Grace note
| (n) Ghost note
| h   Hammer-on
| p   Pull-off
| r   Release
| >   Accented note
| t   Tapping
| b   Bend
| br  Bend release
| pb  Pre-bend
| pbr Pre-bend release
| /   Slide up
| \   Slide down
| ~   Vibrato
| s   Slap
| P   Pop
| PM  Palm mute
| TR  Trill
| N   Tremolo

************************************

            
            
Suggest correction
Creating personal tab
Creating personal tab
You can edit any tab online and save it as your Personal.

You can edit, replace or remove any tab part or add personal notes – all changes will be seen only by you.

Personal tabs can be accessed anytime from any device, even offline.
Learn more »
Give kudos to tab author, rate the tab!
1 2 3 4 5
comments
print report bad tab
guest
You may want to rate the tab now too:
select rating
Wanna post a correction for this tab? Suggest correction