Oops, an error
Loading. Please wait.

Mindful tab

by Tow'rs
367 views 6 this week
no commentswrite comment
1 2 3 4 5
3 more votes to show rating
add to favorites
×
Save as Personal and add changes to this tab that will be seen only by you. Learn more ›
×
You can save this tab as Personal to edit and correct it or add notes. All changes will be seen only by you. Learn more »
launch autoscroll
font size
0
reset
how to read this tab
guitar tuner
edit
Autoscroll
slow
fast
+/-
esc
set tempo
stop
Tabbed By: JPK

Tow'rs - "Mindful"

Standard Tuning
Capo 4

Chords:
Em        0220xx
C/E       0320xx
G         320003
Asus4     x0023x
C         03201x

[Intro]

e|-----------------------------------|---------------------------------------|
B|---3-----------3/5\3-------0-------|---------------------------------------|
G|-------0---------------------------|---2-----------4---2-------0-----------|
D|-----------------------------------|-------0---------------0-------0-------|
A|-------------------------------2---|---0-------0---------------------------|
E|---3-------3-----------3-----------|---------------------------------------|

e|-----------------------------------|---------------------------------------|
B|-----------------------------------|---------------------------------------|
G|---0-----------0-----------0-------|---0-----------0-----------0-----------|
D|-------2---------------2-------2---|-------2---------------2-------0-------|
A|-----------2-----------------------|-----------2---------------------------|
E|---0---------------0---------------|---0---------------0-------------------|

e|-----------------------------------|---------------------------------------|
B|---3-----------3/5\3-------0-------|---------------------------------------|
G|-------0---------------------------|---2-----------4---2-------0-----------|
D|-----------------------------------|-------0---------------0-------0-------|
A|-------------------------------2---|---0-------0---------------------------|
E|---3-------3-----------3-----------|---------------------------------------|

e|-----------------------------------------|---------------------------------|
B|-----------------------------------------|---------------------------------|
G|---0-----------0-------------------0-----|---0-----------0-----------0-----|
D|-------2-----------------0h2---0-------0-|-------2---------------2-------0-|
A|-------------------0h2-------------------|-----------2---------------------|
E|---0-------0-----------------------------|---0---------------0-------------|

[Verse]
     I          have   many                questions     for    you,
e|-----------------------------------|---------------------------------------|
B|---3-----------3/5\3-------0-------|---------------------------------------|
G|-------0---------------------------|---2-----------4---2-------0-----------|
D|-----------------------------------|-------0---------------0-------0-------|
A|-------------------------------2---|---0-------0---------------------------|
E|---3-------3-----------3-----------|---------------------------------------|

e|-----------------------------------|---------------------------------------|
B|-----------------------------------|---------------------------------------|
G|---0-----------0-----------0-------|---0-----------0-----------0-----------|
D|-------2---------------2-------2---|-------2---------------2-------0-------|
A|-----------2-----------------------|-----------2---------------------------|
E|---0---------------0-------0-------|---0---------------0-------0-----------|

     My  mouth   is  so     full         I           cannot     chew,
e|-----------------------------------|---------------------------------------|
B|---3-----------3/5\3-------0-------|---------------------------------------|
G|-------0---------------------------|---2-----------4---2-------0-----------|
D|-----------------------------------|-------0---------------0-------0-------|
A|-------------------------------2---|---0-------0---------------------------|
E|---3-------3-----------3-----------|---------------------------------------|

e|-----------------------------------------|---------------------------------|
B|-----------------------------------------|---------------------------------|
G|---0-----------0-------------------0-----|---0-----------0-----------0-----|
D|-------2-----------------0h2---0-------0-|-------2---------------2-------0-|
A|-------------------0h2-------------------|-----------2---------------------|
E|---0-------0-----------------------------|---0---------------0-------------|

     Are       you  listening,          are         you  listening,
e|-----------------------------------|---------------------------------------|
B|---3-----------3/5\3-------0-------|---------------------------------------|
G|-------0---------------------------|---2-----------4---2-------0-----------|
D|-----------------------------------|-------0---------------0-------0-------|
A|-------------------------------2---|---0-------0---------------------------|
E|---3-------3-----------3-----------|---------------------------------------|

e|-----------------------------------|---------------------------------------|
B|-----------------------------------|---------------------------------------|
G|---0-----------0-----------0-------|---0-----------0-----------0-----------|
D|-------2---------------2-------2---|-------2---------------2-------0-------|
A|-----------2-----------------------|-----------2---------------------------|
E|---0---------------0-------0-------|---0---------------0-------0-----------|

     My  friends  are  hurting,         they        are  hurting,
e|-----------------------------------|---------------------------------------|
B|---3-----------3/5\3-------0-------|---------------------------------------|
G|-------0---------------------------|---2-----------4---2-------0-----------|
D|-----------------------------------|-------0---------------0-------0-------|
A|-------------------------------2---|---0-------0---------------------------|
E|---3-------3-----------3-----------|---------------------------------------|

[Bridge]

e|-----------------------------------|---------------------------------------|
B|-----------------------------------|---------------------------------------|
G|---------------0-------------------|-------------------0-------------------|
D|-------2-----------2-------0-------|---0---0-------2-----------0-----------|
A|-----------2-----------2-------2---|-----------2-----------2-------2-------|
E|---0---------------0-------0-------|---0-----------------------------------|

e|-----------------------------------|---------------------------------------|
B|-----------------------------------|---------------------------------------|
G|---------------0-----------0-------|---------------0-----------0-----------|
D|-------0-----------4-----------0---|-------0-----------4-----------0-------|
A|-----------2-----------2-----------|-----------2-----------2---------------|
E|---3-------------------------------|---3-----------------------------------|

e|-----------------------------------|---------------------------------------|
B|-----------------------------------|---------------------------------------|
G|---------------0-------------------|---------------0-----------------------|
D|-----------2-------2-------0-------|---0-------2-----------0---------------|
A|-------2---------------2-------2---|-------2-----------2-------2-----------|
E|---0-------------------------------|---------------------------------------|

e|-----------------------------------|---------------------------------------|
B|-----------------------------------|---------------------------0-----------|
G|---------------0-----------0-------|---------------0-----------------------|
D|-------0-----------4-----------0---|-------0-----------4-----------0-------|
A|-----------2-----------2-----------|-----------2-----------2---------------|
E|---3-------------------------------|---3-----------------------------------|

  Em                            C/E            
 It's    not    black    or    white    it's    in    between,

[Chorus]

 G   D
 
 Em                    C                             G     Asus4
 Colors   of    a    storm    are    most    fitting,
 Em                         C                        G     Asus4
 Is    there    an    answer    in    the    silence,
 Em                 C                             G     Asus4
 Are    we    asking    the    wrong    questions

 Em   Asus4   C    x2
 
[Verse]
    How         ignorant                man         to   simply 
e|-----------------------------------|---------------------------------------|
B|---3-----------3/5\3-------0-------|---------------------------------------|
G|-------0---------------------------|---2-----------4---2-------0-----------|
D|-----------------------------------|-------0---------------0-------0-------|
A|-------------------------------2---|---0-------0---------------------------|
E|---3-------3-----------3-----------|---------------------------------------|

   think,
e|-----------------------------------------|---------------------------------|
B|-----------------------------------------|---------------------------------|
G|---0-----------0-------------------0-----|---0-----------0-----------0-----|
D|-------2-----------------0h2---0-------0-|-------2---------------2-------0-|
A|-------------------0h2-------------------|-----------2---------------------|
E|---0-------0-----------------------------|---0---------------0-------------|

    We  can't   control      a         storm       with  pen    and
e|-----------------------------------|---------------------------------------|
B|---3-----------3/5\3-------0-------|---------------------------------------|
G|-------0---------------------------|---2-----------4---2-------0-----------|
D|-----------------------------------|-------0---------------0-------0-------|
A|-------------------------------2---|---0-------0---------------------------|
E|---3-------3-----------3-----------|---------------------------------------|

    ink,
e|-----------------------------------|---------------------------------------|
B|-----------------------------------|---------------------------------------|
G|---0-----------0-----------0-------|---0-----------0-----------0-----------|
D|-------2---------------2-------2---|-------2---------------2-------0-------|
A|-----------2-----------------------|-----------2---------------------------|
E|---0---------------0-------0-------|---0---------------0-------0-----------|

     If         I  could    for         you              I      would
e|-----------------------------------|---------------------------------------|
B|---3-----------3/5\3-------0-------|---------------------------------------|
G|-------0---------------------------|---2-----------4---2-------0-----------|
D|-----------------------------------|-------0---------------0-------0-------|
A|-------------------------------2---|---0-------0---------------------------|
E|---3-------3-----------3-----------|---------------------------------------|

    write,
e|-----------------------------------|---------------------------------------|
B|-----------------------------------|---------------------------------------|
G|---0-----------0-----------0-------|---0-----------0-----------0-----------|
D|-------2---------------2-------2---|-------2---------------2-------0-------|
A|-----------2-----------------------|-----------2---------------------------|
E|---0---------------0-------0-------|---0---------------0-------0-----------|

 To make       the   darkest            parts      give  us     life
e|-----------------------------------|---------------------------------------|
B|---3-----------3/5\3-------0-------|---------------------------------------|
G|-------0---------------------------|---2-----------4---2-------0-----------|
D|-----------------------------------|-------0---------------0-------0-------|
A|-------------------------------2---|---0-------0---------------------------|
E|---3-------3-----------3-----------|---------------------------------------|

[Bridge]

e|-----------------------------------|---------------------------------------|
B|-----------------------------------|---------------------------------------|
G|---------------0-------------------|-------------------0-------------------|
D|-------2-----------2-------0-------|---0---0-------2-----------0-----------|
A|-----------2-----------2-------2---|-----------2-----------2-------2-------|
E|---0---------------0-------0-------|---0-----------------------------------|

e|-----------------------------------|---------------------------------------|
B|-----------------------------------|---------------------------------------|
G|---------------0-----------0-------|---------------0-----------0-----------|
D|-------0-----------4-----------0---|-------0-----------4-----------0-------|
A|-----------2-----------2-----------|-----------2-----------2---------------|
E|---3-------------------------------|---3-----------------------------------|

e|-----------------------------------|---------------------------------------|
B|-----------------------------------|---------------------------------------|
G|---------------0-------------------|---------------0-----------------------|
D|-----------2-------2-------0-------|---0-------2-----------0---------------|
A|-------2---------------2-------2---|-------2-----------2-------2-----------|
E|---0-------------------------------|---------------------------------------|

e|-----------------------------------|---------------------------------------|
B|-----------------------------------|---------------------------0-----------|
G|---------------0-----------0-------|---------------0-----------------------|
D|-------0-----------4-----------0---|-------0-----------4-----------0-------|
A|-----------2-----------2-----------|-----------2-----------2---------------|
E|---3-------------------------------|---3-----------------------------------|

  Em                            C/E            
 It's    not    black    or    white    it's    in    between,

[Chorus]

 G   D
 
 Em                    C                             G     Asus4
 Colors   of    a    storm    are    most    fitting,
 Em                         C                        G     Asus4
 Is    there    an    answer    in    the    silence,
 Em                 C                             G     Asus4
 Are    we    asking    the    wrong    questions

 Em   Asus4   C    x2

[Verse]
e|-----------------------------------|---------------------------------------|
B|---3-----------3/5\3-------0-------|---------------------------------------|
G|-------0---------------------------|---2-----------4---2-------0-----------|
D|-----------------------------------|-------0---------------0-------0-------|
A|-------------------------------2---|---0-------0---------------------------|
E|---3-------3-----------3-----------|---------------------------------------|

e|-----------------------------------|---------------------------------------|
B|-----------------------------------|---------------------------------------|
G|---0-----------0-----------0-------|---0-----------0-----------0-----------|
D|-------2---------------2-------2---|-------2---------------2-------0-------|
A|-----------2-----------------------|-----------2---------------------------|
E|---0---------------0-------0-------|---0---------------0-------0-----------|

 Have  we  given  orders  to  the  morning,
 Or  told  the  dawn  its  place  to  be,
 Can  we  bind  the  chains  of  Pleiades,
 Or  command  the  sea,
 Command  the  sea

[Outro]
    Who   are   we   that   you   are   mindful   of   us?
e|---------------------------------------------------------------------------|
B|---3-----------------------------------------------------------------------|
G|---------------------------2-----------------------------------------------|
D|------------------------------------------------2--------------------------|x2
A|---------------------------0-----------------------------------------------|
E|---3--------------------------------------------0--------------------------|

  Guess  that's the part     we         just  have  to  try     and
e|-----------------------------------|---------------------------------------|
B|---3-----------3/5\3-------0-------|---------------------------------------|
G|-------0---------------------------|---2-----------4---2-------0-----------|
D|-----------------------------------|-------0---------------0---------------|
A|-------------------------------2---|---0-------0---------------------------|
E|---3-------3-----------3-----------|---------------------------------------|

  Em   Asus4  C 
 Trust

  Em   Asus4   C   x2


************************************

| x   Dead note
| h   Hammer-on
| /   Slide up
| \   Slide down

************************************

            
            
Suggest correction
Creating personal tab
Creating personal tab
You can edit any tab online and save it as your Personal.

You can edit, replace or remove any tab part or add personal notes – all changes will be seen only by you.

Personal tabs can be accessed anytime from any device, even offline.
Learn more »
Give kudos to tab author, rate the tab!
1 2 3 4 5
comments
print report bad tab
guest
You may want to rate the tab now too:
select rating
Wanna post a correction for this tab? Suggest correction