Oops, an error
Loading. Please wait.

The Depressing Day Bass Tab

78 views 1 this week
no commentswrite comment
1 2 3 4 5
please rate
add to favorites
launch autoscroll
font size
0
reset
guitar tuner
Tab Pro tools
  • play this tab
  • loop segment
  • change instrument
  • show fretboard
  • metronome
×
Best way to learn
"The Depressing Day"
Autoscroll
slow
fast
+/-
esc
set tempo
stop
Contributor
it's a song of a band not popular cause it's my band , and we are not popular , the name 
is " the depressing day "
please rate me :)

intro :

----------------- -|
-----------------  |_ play that's
-66-4--2---------  |- 3 time
------2---6------ -|

verse  :

------------------------------|
------------------------------|
-6-0---0---0----66666--444444-|
------------------------------|

---------------------------------------------------|
---------------------------------------------------|
--222222--444444--6-222226--222226--666-666--------|
--------------------------------------------666-44-|

chorus :

------------------------------------|
------------------------------------|
1111-2---1111-2---1111-2------------|
------------------------------------|

------------------------------------|
------------------------------------|
------------------------------------|
--3333-5555-3333-3333-5-7-9-11-12---|

------------|
------------|
------------|
12-9-5-3-22-|

now you play

intro  ( 1x )

verse  ( 2x )

chorus ( 1x )

verse  ( 3x )

chorus ( 1x )

verse  ( 3x )

intro  ( 1x )

outro :

------------------|
------------------|
-6-6--2-2-4-4-2-2-|
------------------|
comments
We did not receive enough feedback on this tab! Please rate:
print report bad tab
1 2 3 4 5
I want to post or [tab]
guest
You may want to rate the tab now too:
select rating
Please do not post tabs as comments. Select "correction" instead!