Oops, an error
Loading. Please wait.

Contaminated Hate Tab

92 views 1 this week
no commentswrite comment
1 2 3 4 5
excellent!
x 1
add to favorites
launch autoscroll
font size
0
reset
how to read this tab
guitar tuner
Tab Pro tools
  • play this tab
  • loop segment
  • change instrument
  • show fretboard
  • metronome
Autoscroll
slow
fast
+/-
esc
set tempo
stop
#----------------------------------PLEASE NOTE---------------------------------#
#This file is the author's own work and represents their interpretation of the #
#song. You may only use this file for private study, scholarship, or research. #
#------------------------------------------------------------------------------#

CONTAMINATED HATE
 
(music and lyrics: Nedzad "Nele" Bibic)
 
Transcription by Nele. Performed by Toxicdeath
 
from album: Contamination © 2004.
 



 

 


Gtr I (D G C F A D) - 'guitar 1 '

Gtr II (D G C F A D) - 'guitar 2 '



 Q=191
 4/4
Rhytm figure I (repeat two times)
|--------------------------------------------------|
|--------------------------------------------------|
|--------------------------------------------------|
|--------------9-9-9-9-9-------10---10-10-10-------|
|------------------------8-7-8---------------------|
|--0---0-0-0---------------------------------------|


|--------------------------------------------------|
|--------------------------------------------------|
|--------------------------------------------------|
|--------------9-9-9-9-9-------10---10-10-10-------|
|------------------------8-7-8---------------------|
|--0---0-0-0---------------------------------------|


|--------------------------------------------------|
|--------------------------------------------------|
|--------------------------------------------------|
|--------------9-9-9-9-9-------10---10-10-10-------|
|------------------------8-7-8---------------------|
|--0---0-0-0---------------------------------------|


|--------------------------------------------------|
|--------------------------------------------------|
|--------------------------------------------------|
|--------------9-9-9-9-9---------------------------|
|--------------------------8-7-8-7-~-(7)~----------|
|--0---0-0-0---------------------------------------|
 
Rhytm figure I (guitar 2)
|----------------------------------------------------|
|----------------------------------------------------|
|--------------11-11-11-11-11---------12---12-12-12--|
|-----------------------------10-9-10----------------|
|----------------------------------------------------|
|--0---0-0-0-----------------------------------------|


|----------------------------------------------------|
|----------------------------------------------------|
|--------------11-11-11-11-11---------12---12-12-12--|
|-----------------------------10-9-10----------------|
|----------------------------------------------------|
|--0---0-0-0-----------------------------------------|

|----------------------------------------------------|
|----------------------------------------------------|
|--------------11-11-11-11-11---------12---12-12-12--|
|-----------------------------10-9-10----------------|
|----------------------------------------------------|
|--0---0-0-0-----------------------------------------|

|----------------------------------------------------|
|----------------------------------------------------|
|--------------11-11-11-11-11------------------------|
|-----------------------------10-9-10-9-~-(9)~-------|
|----------------------------------------------------|
|--0---0-0-0-----------------------------------------|

Q=171
Rhytm figure II (repeat two times)
(under 1st solo)
|---------------------------------|---------------------------------|
|---------------------------------|---------------------------------|
|---------------------------------|---------------------------------|
|---------------------------------|-----------------5-5-5-5---------|
|-3-3-3-3-------------------------|-3-3-3-3-----------------2-2-2-2-|
|---------0-0-0-0-0-0-0-0-0-0-0-0-|---------0-0-0-0-----------------|


|---------------------------------|---------------------------------|
|---------------------------------|---------------------------------|
|---------------------------------|---------------------------------|
|---------------------------------|---------------------------------|
|-3-3-3-3-------------------------|-3-3-3-3----------5---4---3------|
|---------0-0-0-0-0-0-0-0-0-0-0-0-|---------0-0-0-0--3---2---1------|


  Q=188
Rhytm figure III (repeat two times)
|---------------------------------|---------------------------------|
|---------------------------------|---------------------------------|
|---------------------------------|---------------------------------|
|---------------------------------|---------------------------------|
|---------------------------------|-------------------------3---3---|
|-0-0-0-0-0---0-0-0-0-0-0-0---0-0-|-0-0-0-0-0---0-0-0-0-0-0-1---1---|


|---------------------------------|---------------------------------|
|---------------------------------|---------------------------------|
|---------------------------------|-------------------------3-------|
|---------------------------------|-4---4---5---5---2-2-2-2-1-------|
|---------------------------------|-2---2---3---3-------------------|
|-0-0-0-0-0---0-0-0-0-0-0-0---0-0-|---------------------------------|


|---------------------------------|---------------------------------|
|---------------------------------|---------------------------------|
|---------------------------------|---------------------------------|
|---------------------------------|---------------------------------|
|---------------------------------|-------------------------3---3---|
|-0-0-0-0-0---0-0-0-0-0-0-0---0-0-|-0-0-0-0-0---0-0-0-0-0-0-1---1---|


|---------------------------------|---------------------------------|
|---------------------------------|---------------------------------|
|---------------------------------|---------------------------------|
|---------------------------------|-4---4---5---5-----------4-------|
|---------------------------------|-2---2---3---3-----------2-------|
|-0-0-0-0-0---0-0-0-0-0-0-0---0-0-|-----------------3-3-3-3---------|




(Repeat- two times) Rhytm figure I


  Q=171
Rhytm Figure IV (repeat two times)
(under 2nd solo)
|---------------------------------|---------------------------------|
|---------------------------------|---------------------------------|
|---------------------------------|-----------------5-5-5-5---------|
|-3-3-3-3-------------------------|-3-3-3-3-----------------2-2-2-2-|
|---------0-0-0-0-0-0-0-0-0-0-0-0-|---------0-0-0-0-----------------|
|---------------------------------|---------------------------------|


|---------------------------------|---------------------------------|
|---------------------------------|---------------------------------|
|---------------------------------|---------------------------------|
|-3-3-3-3-------------------------|-3-3-3-3---------5---4---3-------|
|---------0-0-0-0-0-0-0-0-0-0-0-0-|---------0-0-0-0-3---2---1-------|
|---------------------------------|---------------------------------|


(Repeat two times) Rhytm figure III


Q=210
Rhytm figure V (repeat four times)
|----------------------------------|----------------------------------|
|----------------------------------|-----------------8-8-8-8----------|
|------------------7-7-7-7---------|---------7-7-7-7------------------|
|--5-5-5-5-----------------4-4-4-4-|-5-5-5-5--------------------------|
|----------2-2-2-2-----------------|----------------------------------|
|----------------------------------|-------------------------7-7-7-7--|


(Repeat) Rhytm figure I
(Repeat- four times) Rhytm figure V



Q=196
Rhytm figure VI (Repeat three times)
|-------------------------------------------------|
|-------------------------------------------------|
|-------------------------------------------------|
|--------------4---4---4---------------5---5---5--|
|--2---2-2-2---2---2---2---3---2---3---3---3---3--|
|--0---0-0-0---------------1---0---1--------------|

|-------------------------------------------------|
|-------------------------------------------------|
|-------------------------------------------------|
|--------------4---4---4---------------5---5---5--|
|--2---2-2-2---2---2---2---3---2---3---3---3---3--|
|--0---0-0-0---------------1---0---1--------------|
|-------------------------------------------------|
|-------------------------------------------------|
|-------------------------------------------------|
|--------------4---4---4---------------5---5---5--|
|--2---2-2-2---2---2---2---3---2---3---3---3---3--|
|--0---0-0-0---------------1---0---1--------------|
|-------------------------------------------------|
|-------------------------------------------------|
|-------------------------------------------------|
|--------------4---4---4--------------------------|
|--2---2-2-2---2---2---2---3---2---3---2----(2)---|
|--0---0-0-0---------------1---0---1---0----(0)---|
 
----- THE END -----


--------------------------------------------------------------------------------


Duration Legend
---------------
W - whole; H - half; Q - quarter; E - 8th; S - 16th; T - 32nd; X - 64th; a - acciaccatura
+ - note tied to previous; . - note dotted; .. - note double dotted
Uncapitalized letters represent notes that are staccato (1/2 duration)
Irregular groupings are notated above the duration line
Duration letters will always appear directly above the note/fret number it represents the
duration for.  Duration letters with no fret number below them represent rests.  Multi-
bar rests are notated in the form Wxn, where n is the number of bars to rest for.  Low
melody durations appear below the staff

Tablature Legend
----------------
 h   - hammer-on
 p   - pull-off
 b   - bend
 pb  - pre-bend
 r   - bend release (if no number after the r, then release immediately)
 /\  - slide into or out of (from/to "nowhere")
 s   - legato slide
 S   - shift slide
 - natural harmonic
[n]  - artificial harmonic
n(n) - tapped harmonic
 ~   - vibrato
 tr  - trill
 T   - tap
 TP  - trem. picking
 PM  - palm muting
\n/  - tremolo bar dip; n = amount to dip
 \n  - tremolo bar down
 n/  - tremolo bar up
/n\  - tremolo bar inverted dip
 =   - hold bend; also acts as connecting device for hammers/pulls
 <> - volume swell (louder/softer)
 x   - on rhythm slash represents muted slash
 o   - on rhythm slash represents single note slash

Misc Legend
-----------
 |  - bar
||  - double bar
||o - repeat start
o|| - repeat end
*|  - double bar (ending)
 :  - bar (freetime)
 $  - Segno
 &  - Coda
Tempo markers -  = BPM(8/16=s8/s16), where s8 = swing 8ths, s16 = swing 16ths



--------------------------------------------------------------------------------

*note: for more TOXICDEATH tabs visit: www.toxicdeath.com
comments
We did not receive enough feedback on this tab! Please rate:
print report bad tab
1 2 3 4 5
I want to post or [tab]
guest
You may want to rate the tab now too:
select rating
Please do not post tabs as comments. Select "correction" instead!