Oops, an error
Loading. Please wait.

47 Seconds Of Sanity tab

version 2
version 2

Whole song

by Toxik
761 views 1 this week
no commentswrite comment
1 2 3 4 5
3 more votes to show rating
add to favorites
×
Save as Personal and add changes to this tab that will be seen only by you. Learn more ›
×
You can save this tab as Personal to edit and correct it or add notes. All changes will be seen only by you. Learn more »
launch autoscroll
font size
0
reset
how to read this tab
guitar tuner
edit
Autoscroll
slow
fast
+/-
esc
set tempo
stop
Author
Difficulty
47 SECONDS OF SANITY / COUNT YOUR BLESSINGS
                              As recorded by Toxik
                       (From the 1988 Album WORLD CIRCUS)
                     Copyright (c) 1988 Rodarunner Records


Arranged by Toxik
Transcribed by Steve Elvidge and Steve Rubaszek
Version - 1.3 - March 9, 2006


Big thanks to Steve E. as he tabbed the whole intro, something that I could not
have done myself.


Gtr I (E A D G B E) - 'Acoustic I'
Gtr II (E A D G B E) - 'Acoustic II'
Gtr III (E A D G B E) - 'Lead'
Gtr IV (E A D G B E) - 'Clean'
Gtr V (E A D G B E) - 'Rhythm I'
Gtr VI (E A D G B E) - 'Rhythm II'


 47 Seconds of Sanity
  Q=140
  N.C.
 4/4
  Gtr I
|-3-------3-------|--0--------0-------|-1----1-------|-------0---1---|
|---1-------1-----|-----1-------1-----|-0------0-----|-3-------3-----|
|-----2-------2---|-------2-------2---|-----------2--|---------------|
|-------2-------2-|---------2-------2-|--------------|---------------|
|-----------------|-------------------|--------------|-2-------------|
|-----------------|-------------------|--------------|---------------|
|
| Gtr II
|-----------------|-------------------|--------------|---------------|
|-----------------|-------------------|--------------|-----------5---|
|-------------2---|---------------5---|-4--------/7--|-7----/7-------|
|---------------2-|-(2)---------------|--------------|---------------|
|-----------------|-------------------|--------------|---------------|
|-----------------|-------------------|--------------|---------------|


|------------------|------------|-1-----3-1-0--|
|------------------|-----1-0----|--------------|
|-----2------------|---2--------|--------------|
|-3----------------|-2----------|--------------|
|--------2-----0---|------------|--------------|
|------------------|------------|--------------|
|
|------------------|------------|--------------|
|-6h8----8p6S5---6-|-5S3--------|--------------|
|------------------|-----5-4----|-4---5--------|
|------------------|------------|-------7------|
|------------------|------------|--------------|
|------------------|------------|--------------|


     N.C.
|----------------|-----------------|
|----------------|-----1-------1---|
|-1--------------|---1-------2---1-|
|----------------|-2-------2-------|
|-2------------3-|-----------------|
|----------------|-----------------|
|
|--------------0-|-1-0-1-3-5-7-8-7-|
|--------0-1-3---|-----------------|
|-1--1-2---------|-----------------|
|----------------|-----------------|
|----------------|-----------------|
|----------------|-----------------|


|--------0-------------|--------0-------|
|--------3-------------|----3------0----|
|----------------------|--------------0-|
|----------------------|----------------|
|---3------------------|-2--------------|
|----------------------|----------------|
|
|-7h8----7-8-10-7-8----|-7--------------|
|-------------------10-|----8-----(8)-8-|
|----------------------|----------------|
|----------------------|----------------|
|----------------------|----------------|
|----------------------|----------------|


|--------------------------0---|---------5-3-0--|
|----------3---1-------------0-|---1---3--------|
|-2----2-----------2-----------|-2---2----------|
|-0----------------------------|----------------|
|----------------------0-------|----------------|
|------------------------------|----------------|
|
|------------------------------|----------------|
|-8h10-6h8-5h6-3h5-1h3-0h1p0---|-------------3--|
|------------------------------|-2--------------|
|------------------------------|----------------|
|------------------------------|----------------|
|------------------------------|----------------|


                                         E/B
|-----------------3---1------|-(1)------------------|
|---------3------------------|----------------------|
|-----2----------------------|-----------1---1--1-1-|
|-0--------------------------|-----------2---2--2-2-|
|----------------------------|-----------2---2--2-2-|
|----------------------------|-------0--------------|
|
|                                          ~~~~
|----------------------------|----------------------|
|-------------------3-1---1--|----------------------|
|---------2-4-5-2-4-----4----|--5--4-5p4-5----------|
|---2-3-5--------------------|-------------3-3--2---|
|-5--------------------------|----------------------|
|----------------------------|----------------------|


                           H.=H
  N.C.
|-----------------|--------------0-|-----0-----<5>-<5>-(<5>)----|
|-----------------|----------------|--2----<5>------------------|
|-----2-------0---|-----0------2---|----------------------------|
|---2---2---0---0-|---2------2-----|----------------------------|
|-0-------2-------|-3------4-------|----------------------------|
|-----------------|----------------|----------------------------|
|
|-----------------|--------0-------|-(0)-------<5>-----(<5>)----|
|-1-------3-------|-5------5-------|-(5)---<5>------------------|
|-----------------|----------------|----------------------------|
|-----------------|----------------|----------------------------|
|-0-------2-------|-3--------------|----------------------------|
|-----------------|----------------|----------------------------|


  Q=80
 12/8
:-1---------------4---------------------------------------------3-0-|
:-----3---1---0---------------0-----1-------------------------------|
:-----------------------------------------2-------------------------|
:-------------------------------------------------------------------|
:-----------------------------------------------0-------------------|
:-------------------------------------------------------------------|
|
:-----------1-----0-1-3p1---0---------------------------------------|
:---0---1-------3---------3---3-1-0-3-1-0---0-----------------------|
:-2---------------------------------------2---2-0---2-0-------------|
:-0-----------------------------------------------3-----3-2-3-2-0---|
:-----------------------------------------------------------------3-|
:-------------------------------------------------------------------|


        Q=100
          E   N.C.
 4/4
|-------------------0---0-(0)--|
|-3-(3)---------------3--------|
|---------1--------------------|
|---------2--------------------|
|---------2--------------------|
|---------0--------------------|
|
|------------------------------|
|------------------------------|
|------------------------------|
|------------------------------|
|-3-----2-----0-2-3---2--------|
|-----------4------------------|


  H.=H                          Q
  Gtr I
|-0-----------------------------|
|-----3-------------------------|
|-----------4-----(4)-----------|
|-------------------------------|
|-------------------------------|
|-------------------------------|
|
| Gtr I
|-----------0----------------0--|
|---1-----------------1---------|
|-2-------2--------2------2-(2)-|
|-------------------------------|
|-------------------------------|
|-------------------------------|
|
| Gtr II
|-------------------------------|
|---------------------1-3-------|
|-------------0-2--4------------|
|-------0-2-3-------------------|
|-0-2-3-------------------------|
|-------------------------------|


 =90
         Am                                                        N.C.
 9/4
|-------------------------------------------------------------------------||
|-------------------------------------------------------------------------||
|-------------------------------------------------------------------------||
|-------------------------------------------------------------------------||
|-------------------------------------------------------------------------||
|-------------------------------------------------------------------------||
|
|-------------------------------------------------------------------------||
|---------1-----------------------(1)--------1----------------------------||
|-(2)-----2-----------------------(2)--------2----------------------------||
|---------2-----------------------(2)--------2----------------------------||
|---------0-----------------------(0)--------0----------------------------||
|-------------------------------------------------------------------0-----||
|
|-12--13-10-12-8-10-7-8p7-------------------------------------------------||
|-------------------------10-9-10--9--------------------------------------||
|-------------------------------------9-7-9S10-7-9-5S4-5-7p5S4-2p1-(1)----||
|-------------------------------------------------------------------------||
|-------------------------------------------------------------------------||
|-------------------------------------------------------------------------||


 Intro
  Q=140
  N.C.
 4/4
  Gtr IV
|------------------|-----------------|--------------------|-------------------|
|----------5-------|---------5-------|-----6p5------------|-------------------|
|------5-------5---|-----5-------5---|-----------10---9---|-------------------|
|-^7-7---7---7---7-|---7---7---7---7-|---7-----7----------|-12---10---9---12--|
|-^0---------------|-8---------------|-7------------7---7-|----7----7---7-----|
|------------------|-----------------|--------------------|-------------------|


         C/AN.C.
|-----------------|-----------------|--------------------|----------8---7\---|
|--------^5-5-----|---------5-------|-----6-5------------|-10---9------------|
|------5-^5-----5-|-----5-------5---|-----------10---9---|-------------------|
|-7--7---^7---7---|---7---7---7---7-|---7-----7----------|-------------------|
|-0---------------|-8---------------|-7------------7---7-|----7---7---7------|
|-----------------|-----------------|--------------------|-------------------|


                           C/AN.C.                           C/A
|----------------|------------------|-----------------|------^0----|
|------0---0-----|---------^5-5-----|-----------------|------^1----|
|--------7-----7-|---7---7-^5---5---|-------5-7-7-5\--|------^2----|
|----5-------5---|-----5---^7-----7-|---5-------------|------------|
|-3--------------|-3----------------|-3---3-----------|------------|
|----------------|------------------|-----------------|-1----------|


  Gtr IV
|-----------------|----------------|
|-----------------|-----6-6-----6--|
|---5---5-7-5-4---|---5-------5----|
|-7---7---------7-|-3-------2------|
|-0---------------|----------------|
|-----------------|----------------|
|
| Gtrs V, VI
|-----------------|----------------|
|-----------------|----------------|
|-----------------|----------------|
|-----------------|----------------|
|-----------------|----------------|
|-----------------|----------------|


  Q=160
|-----------(5)-------|-([17])--------------||
|---------------------|---------------------||
|---------------------|---------------------||
|---------------------|---------------------||
|-(0)-----------------|---------------------||
|---------------------|---------------------||
|
|  PM----------------------------------|
|---------------------|---------------------||
|---------------------|---------------------||
|---------------------|---------------------||
|--2--2-2-2--2--2-2-2-|----2---2-2-2-2-2-2--||
|--0--0-0-0--0--0-0-0-|----0---0-0-0-0-0-0--||
|---------------------|---------------------||


 Solo
  A5          N.C.  Am                      N.C.         F5 N.C.F  N.C.
  Gtr III
                                                                ~
|-20p18p17p15------------------------------------------|----------------|
|-------------17---------------------------------------|----------------|
|----------------17-17p15p14p12h14h15-14p12p11p9h11h12-|----------------|
|------------------------------------------------------|----------------|
|------------------------------------------------------|----------------|
|------------------------------------------------------|-1------1-------|
|
|              PM|                     PM------|            PM|    PM|
|------------------------------------------------------|----------------|
|--------------------1---------------------------------|----------------|
|--2-----------------2---------------------------------|--------2-------|
|--2-----------------2---------------------------------|-3------3-------|
|--0-----------0--0--------------------0-------0-------|-3------3-------|
|------------------------------------------------------|-1--1-1----1-1--|


  E5 N.C.                  F5          E5    F           G
         PM-----|
|------------------------|-----------------------------------|
|------------------------|-18p15p13----13----17p15p13----17--|
|----------------------9-|----------14----14----------14-----|
|------------------10----|-----------------------------------|
|-----------10--12-------|-----------------------------------|
|-0--10-12---------------|-----------------------------------|
|
|------------------------|-----------------------------------|
|------------------------|-----------------------------------|
|----------[10]----[9]---|-10-----------9----10----------12--|
|-2----------------------|-10-----------9-----7-----------9--|
|-2----------------------|--8-----------7-----8----------10--|
|-0---0--0---------------|-----------------------------------|


  A5  N.C.        Am          N.C.
|--------------10-12-10------------------------|
|-10--10-12-13----------13-12------------------|
|-----------------------------12p10p9----------|
|-------------------------------------12p10p9--|
|----------------------------------------------|
|----------------------------------------------|
|
|      PM---|                  PM-----|
|----------------------------------------------|
|------------------1---------------------------|
|--2---------------2---------------------------|
|--2---------------2---------------------------|
|--0---0-----0-----------------0-------0-------|
|----------------------------------------------|


  F5 N.C. F              N.C.          E5 N.C.
|------------------------------------|----------------------------------|
|---------12p10p8--------------------|----------------------------------|
|-----------------10p9p7-------------|----9S7S==10-10S9S==14-14S12S==19-|
|----9-10----------------10p9p7------|----------------------------------|
|-8-----------------------------10p8p|=7--------------------------------|
|------------------------------------|----------------------------------|
|
|    PM|                  PM----|         PM-----------------------------
|------------------------------------|----------------------------------|
|------------------------------------|----------------------------------|
|----------2-------------------------|--------------9---7---------------|
|-3--------3-------------------------|------------------------9----7----|
|-3--------3-------------------------|-2--------------------------------|
|-1--1--1-----------------1------1---|-0--0---0-------------------------|


|-14h16p0-----------14h16-0----------------|
|---------14p0-12p0---------14p0-12p0-12---|
|------------------------------------------|
|------------------------------------------|
|------------------------------------------|
|------------------------------------------|
|
|----------------------------------------|
|------------------------------------------|
|--------------10--------------------------|
|--------------------9---------------------|
|----------9-------------------------------|
|--7---------------------------------------|
|----------------------------5----3----1-0-|


    ~~~~                                   ~~~
|---------17b20------|-15--17-13-15-12-13----------|
|-[15]---------------|-----------------------------|
|--------------------|--------------------[7]------|
|--------------------|-----------------------------|
|--------------------|-----------------------------|
|--------------------|-----------------------------|
|
|   ~~~~
|--------------------|-----------------------------|
|--------------------|-----------------------------|
|--------------------|-----------------------------|
|--------------------|-----------------------------|
|--------------------|-----------------------------|
|---7-----10----8-7--|-[7]-----------------7--8-7--|


                        T     T   T   T
|-------------------------|---------------------|
|-------------------------|---------------------|
|-[12]----14-(14)S==7h==9p|=7h9p7h9p7h9p5p0-----|
|-------------------------|---------------------|
|-------------------------|---------------------|
|-------------------------|---------------------|
|
|   ~~~~                    ~~
|-------------------------|---------------------|
|-------------------------|---------------------|
|-------------------------|---------------------|
|-------------------------|---------------------|
|-------------------------|---------------------|
|---5------3------5---3---|-1-----------0---1-0-|


  A5          N.C.
|-15-17-13-15-12-13-10-12-8-10-7-8-5\---|
|---------------------------------------|
|---------------------------------------|
|---------------------------------------|
|---------------------------------------|
|---------------------------------------|
|
|              PM------------------------
|---------------------------------------|
|---------------------------------------|
|-------------------------9----7--------|
|--7-------------------------------9--7-|
|--7------------------------------------|
|--5-----------5-----5------------------|


  T                T              T            T
|----------------------------------------------------------|
|----------------------------------------------------------|
|-9h10h12h14p12p9--7h9h10h12p10p7-5h7h9h10p9p5-4h5h7h9p7p4-|
|----------------------------------------------------------|
|----------------------------------------------------------|
|----------------------------------------------------------|
|
|----------------------------------------------------|
|----------------------------------------------------------|
|-----------------10---------------------------------------|
|--------------------------9-------------------------------|
|----------9-----------------------------------------------|
|-7--------------------------------------------------------|
|---------------------------------5------3-----1-----0-----|


  A5
  Gtr III
  ~~~~~~~~~~~~~~~
|----------|------------|-----------|
|----------|------------|-----------|
|-2--------|-(2)--------|-(2)-------|
|----------|------------|-----------|
|----------|------------|-----------|
|----------|------------|-----------|
|
| Gtr VI
|                          >
|----------|------------|-----------|
|----------|------------|-----------|
|----------|------------|-----------|
|-7--------|-(7)--------|-(7)-------|
|-7--------|-(7)--------|-(7)-------|
|-5--------|-(5)--------|-(5)-------|
|
| Gtr V
| >                            <
|----------|------------|-----------|
|----------|------------|-----------|
|----------|------------|-----------|
|-7--------|------------|------7----|
|-7--------|------------|-----------|
|-5--------|------------|------5----|


 Verse
  Q=235
  N.C.
  Gtr III
|------------------------|-------------------|
|------------------------|-------------------|
|--2---------(2)\--------|-------------------|
|------------------------|-------------------|
|------------------------|-------------------|
|------------------------|-------------------|
|
| Gtr V
|------------------------|-------------------|
|------------------------|-------------------|
|------------------------|---9-9---7-7-10-10-|
|-14-14---12-12-----17\--|---7-7---5-5--8--8-|
|-12-12-0-10-10---0-15\--|-0-----0-----------|
|------------------------|-------------------|


              \2.5                /           |
|-------------------|-----------------------------|
|-------------------|-----------------------------|
|-------------------|-----------------------------|
|-------------------|-----------------------------|
|-------------------|-----------------------------|
|-------------0-----|-(0)--(0)---(0)---(0)---(0)--|
|
|                           \1/   \1/   \1/
|-------------------|-----------------------------|
|-------------------|-----------------------------|
|-9-9---------8-----|-(8)--(8)---(8)---(8)--------|
|-7-7---7-7---6-----|-(6)--(6)---(6)---(6)--------|
|-----0-6-6-0-------|-----------------------------|
|-------------------|-----------------------------|


  Gtr V
|----------------------|-------------------|
|----------------------|-------------------|
|----------------------|---9-9---7-7-10-10-|
|-14-14---12-12---17\--|---7-7---5-5--8--8-|
|-12-12-0-10-10-0-15\--|-0-----0-----------|
|----------------------|-------------------|
|
| Gtr VI
|----------------------|-------------------|
|----------------------|-------------------|
|----------------------|-------------------|
|-14-14----------------|-------------------|
|-12-12----------------|-------------------|
|----------------------|-------------------|


|----------------|-----------------------|
|----------------|-----------------------|
|-9-9---------8--|---------6-7-9-7-6-----|
|-7-7---7-7---6--|---6-7-9-----------6---|
|-----0-6-6-0----|-9---------------------|
|----------------|-----------------------|
|
|----------------|-----------------------|
|----------------|-----------------------|
|----------------|---------6-7-9-7-6-----|
|----------------|---6-7-9-----------6---|
|----------------|-9---------------------|
|----------------|-----------------------|


  Gtrs V, VI
|----------------------|-------------------|
|----------------------|-------------------|
|----------------------|---9-9---7-7-10-10-|
|-14-14---12-12---17\--|---7-7---5-5--8--8-|
|-12-12-0-10-10-0-15\--|-0-----0-----------|
|----------------------|-------------------|


                     \1/   \1/   \1/
|------------|------------------------|
|------------|------------------------|
|-9-------8--|-(8)--(8)---(8)---(8)---|
|-7---7---6--|-(6)--(6)---(6)---(6)---|
|-----5------|------------------------|
|------------|------------------------|


|----------------------|-------------------|----------|-----------------------||
|----------------------|-------------------|----------|-----------------------||
|----------------------|---9-9---7-7-10-10-|-9-----8--|---------6-7-9-7-6-----||
|-14-14---12-12---17\--|---7-7---5-5--8--8-|-7--7--6--|---6-7-9-----------6---||
|-12-12-0-10-10-0-15\--|-0-----0-----------|----5-----|-9---------------------||
|----------------------|-------------------|----------|-----------------------||


 Chorus
  N.C.
 6/4
|-----------------------------|--------------------------|
|-----------------------------|--------------------------|
|-----------------------------|--------------------------|
|-----------------------------|--------------------------|
|-----[8]--[7]----------------|-----[8]--[7]--8-7--------|
|-0-0-----------0-0-[8]--[7]--|-0-0---------------8-7-8--|


|-----------------------------|-----------------------------|
|-----------------------------|-----------------------------|
|-----------------------------|-----------------------------|
|-----------------------------|-----------------------------|
|-----[8]--[7]----------------|-----[8]--[7]--8-7-----10----|
|-0-0-----------0-0-[8]--[7]--|-0-0---------------8-7--8----|


  Gtr V
|-------------------------------|------------------------------|
|-------------------------------|------------------------------|
|-----[10]--[9]-----------------|-----[10]--[9]--10-9----------|
|--------------------[10]--[9]--|---------------------10-9-10--|
|-------------------------------|------------------------------|
|-0-0------------0-0------------|-0-0--------------------------|
|
| Gtr VI
|-------------------------------|------------------------------|
|-------------------------------|------------------------------|
|-------------------------------|------------------------------|
|-------------------------------|------------------------------|
|-------8----7------------------|-------8----7----8-7----------|
|-0-0------------0-0---8----7---|-0-0------------------8-7--8--|


|-------------------------------|---------------------------------|
|-------------------------------|---------------------------------|
|-----[10]--[9]-----------------|-----[10]--[9]--10-9-------------|
|--------------------[10]--[9]--|---------------------10-9-10\----|
|-------------------------------|---------------------------------|
|-0-0------------0-0------------|-0-0-----------------------------|
|
|-------------------------------|---------------------------------|
|-------------------------------|---------------------------------|
|-------------------------------|---------------------------------|
|-------------------------------|---------------------------------|
|-------8----7------------------|-------8----7----8-7-------------|
|-0-0------------0-0---8----7---|-0-0------------------8-7--8\----|


 Verse
  N.C.
 4/4
  Gtrs V, VI
|----------------------|-------------------|
|----------------------|-------------------|
|----------------------|---9-9---7-7-10-10-|
|-14-14---12-12---17\--|---7-7---5-5--8--8-|
|-12-12-0-10-10-0-15\--|-0-----0-----------|
|----------------------|-------------------|


                     \1/   \1/   \1/
|------------|-------------------------|
|------------|-------------------------|
|-9-------8--|-(8)--(8)---(8)---(8)----|
|-7---7---6--|-(6)--(6)---(6)---(6)----|
|-----5------|-------------------------|
|------------|-------------------------|


|----------------------|-------------------|----------|-----------------------|
|----------------------|-------------------|----------|-----------------------|
|----------------------|---9-9---7-7-10-10-|-9-----8--|---------6-7-9-7-6-----|
|-14-14---12-12---17\--|---7-7---5-5--8--8-|-7--7--6--|---6-7-9-----------6---|
|-12-12-0-10-10-0-15\--|-0-----0-----------|----5-----|-9---------------------|
|----------------------|-------------------|----------|-----------------------|


 Verse
  N.C. Am/E     N.C.
 8/4
  PM|
|--------------------0-----|-----------------------|
|---------------0----------|-----------------------|
|------5-(5)---------------|-/7--------9-----------|
|------7-(7)---------------|-/9-------------10\----|
|-0-0--7-(7)---------------|-----------------------|
|--------------------------|-----------------------|


                     PM|
|------------------------|-----------------------|
|------------------------|-----------------------|
|------------------------|-----------------------|
|-----7------------------|-----7-----------------|
|-5---5---8----7--5------|-5---5---8----7--5--7--|
|-3-------6----5--3--0-0-|-3-------6----5--3--5--|


       Am/E     N.C.
  PM|
|----------------------------|-------------------<12>----|
|----------------------------|-------------<12>----------|
|------5-(5)---------5-------|-/7------------------------|
|------7-(7)----<7>-----<7>--|-/9----<12>----------------|
|-0-0--7-(7)-----------------|---------------------------|
|----------------------------|---------------------------|


                     PM----------------------------------|
|------------------------|---------------------------------|
|------------------------|---------------------------------|
|------------------------|---------------------------------|
|-----7------------------|---------------------------------|
|-5---5---8----7--5------|-------5-5-5---------------------|
|-3-------6----5--3--0-0-|-3-3-3-------6-6-6-5-5-5-3-3-5-5-|


   Chorus
    N.C.
   6/4
||------------------------------|--------------------------|
||o-----------------------------|--------------------------|
||------------------------------|--------------------------|
||------------------------------|--------------------------|
||o-----[8]--[7]----------------|-----[8]--[7]--8-7--------|
||--0-0-----------0-0-[8]--[7]--|-0-0---------------8-7-8--|


|-----------------------------|-----------------------------||
|-----------------------------|----------------------------o||
|-----------------------------|-----------------------------||
|-----------------------------|-----------------------------||
|-----[8]--[7]----------------|-----[8]--[7]--8-7-----10---o||
|-0-0-----------0-0-[8]--[7]--|-0-0---------------8-7--8----||


 Verse
  N.C.
 4/4
|----------------------|-------------------|
|----------------------|-------------------|
|----------------------|---9-9---7-7-10-10-|
|-14-14---12-12---17\--|---7-7---5-5--8--8-|
|-12-12-0-10-10-0-15\--|-0-----0-----------|
|----------------------|-------------------|


                         \1/   \1/   \1/
|----------------|-------------------------|
|----------------|-------------------------|
|-9-9---------8--|-(8)--(8)---(8)---(8)----|
|-7-7---7-7---6--|-(6)--(6)---(6)---(6)----|
|-----0-6-6-0----|-------------------------|
|----------------|-------------------------|


|----------------------|-------------------|----------|-----------------------|
|----------------------|-------------------|----------|-----------------------|
|----------------------|---9-9---7-7-10-10-|-9-----8--|---------6-7-9-7-6-----|
|-14-14---12-12---17\--|---7-7---5-5--8--8-|-7--7--6--|---6-7-9-----------6---|
|-12-12-0-10-10-0-15\--|-0-----0-----------|----5-----|-9---------------------|
|----------------------|-------------------|----------|-----------------------|


 Verse
  N.C. Am/E     N.C.
 8/4
  PM|
|--------------------0----|------------------------------<12>---|
|---------------0---------|------------------------<12>---------|
|------5-(5)--------------|-/7--------------<7>-----------------|
|------7-(7)--------------|-/9---------<7>----------------------|
|-0-0--7-(7)--------------|-------<7>---------------------------|
|-------------------------|-------------------------------------|


                     PM|
|------------------------|-----------------------|
|------------------------|-----------------------|
|------------------------|-----------------------|
|-----7------------------|-----7-----------------|
|-5---5---8----7--5------|-5---5---8----7--5--7--|
|-3-------6----5--3--0-0-|-3-------6----5--3--5--|


  N.C. Am/E     N.C.
  PM|
|----------------------------|------------------------------<12>---|
|----------------------------|------------------------<12>---------|
|------5-(5)---------5-------|-/7--------------<7>-----------------|
|------7-(7)----<7>-----<7>--|-/9---------<7>----------------------|
|-0-0--7-(7)-----------------|-------<7>---------------------------|
|----------------------------|-------------------------------------|


                     PM----------------------------------|
|------------------------|---------------------------------|
|------------------------|---------------------------------|
|------------------------|---------------------------------|
|-----7------------------|---------------------------------|
|-5---5---8----7--5------|-------5-5-5---------------------|
|-3-------6----5--3--0-0-|-3-3-3-------6-6-6-5-5-5-3-3-5-5-|


 Chorus
  N.C.
 6/4
  Gtr V
|-----------------------------|--------------------------|
|-----------------------------|--------------------------|
|-----------------------------|--------------------------|
|-----------------------------|--------------------------|
|-----[8]--[7]----------------|-----[8]--[7]--8-7--------|
|-0-0-----------0-0-[8]--[7]--|-0-0---------------8-7-8--|
|
| Gtr VI
|-----------------------------|--------------------------|
|-----------------------------|--------------------------|
|-----------------------------|--------------------------|
|-----------------------------|--------------------------|
|-----[8]--[7]----------------|-----[8]--[7]--8-7--------|
|-0-0-----------0-0-[8]--[7]--|-0-0---------------8-7-8--|


|-------------------------------|---------------------------------|
|-------------------------------|---------------------------------|
|-----[10]--[9]-----------------|-----[10]--[9]--10-9-------------|
|--------------------[10]--[9]--|---------------------10-9-10\----|
|-------------------------------|---------------------------------|
|-0-0------------0-0------------|-0-0-----------------------------|
|
|-------------------------------|---------------------------------|
|-------------------------------|---------------------------------|
|-------------------------------|---------------------------------|
|-------------------------------|---------------------------------|
|------[8]--[7]-----------------|------[8]--[7]---8-7------10-----|
|-0-0------------0-0--[8]--[7]--|-0-0------------------8-7--8-----|


  Gtr V
|-----------------------------|--------------------------|
|-----------------------------|--------------------------|
|-----------------------------|--------------------------|
|-----------------------------|--------------------------|
|-----[8]--[7]----------------|-----[8]--[7]--8-7--------|
|-0-0-----------0-0-[8]--[7]--|-0-0---------------8-7-8--|
|
| Gtr VI
|-----------------------------|--------------------------|
|-----------------------------|--------------------------|
|-----------------------------|--------------------------|
|-----------------------------|--------------------------|
|-----[8]--[7]----------------|-----[8]--[7]--8-7--------|
|-0-0-----------0-0-[8]--[7]--|-0-0---------------8-7-8--|


|-------------------------------|---------------------------------|
|-------------------------------|---------------------------------|
|-----[10]--[9]-----------------|-----[10]--[9]--10-9-------------|
|--------------------[10]--[9]--|---------------------10-9-10\----|
|-------------------------------|---------------------------------|
|-0-0------------0-0------------|-0-0-----------------------------|
|
|-------------------------------|---------------------------------|
|-------------------------------|---------------------------------|
|-------------------------------|---------------------------------|
|-------------------------------|---------------------------------|
|------[8]--[7]-----------------|------[8]--[7]---8-7------10-----|
|-0-0------------0-0--[8]--[7]--|-0-0------------------8-7--8-----|


 Solo II
  N.C.
 7/4
  Gtr III
|-----5-8p5-----------8h11p8-------------11h14p11-------------14-|
|---7-------6------10--------10-------13----------13-------16----|
|-8-----------8S11--------------11S14----------------14S17-------|
|----------------------------------------------------------------|
|----------------------------------------------------------------|
|----------------------------------------------------------------|
|
| Gtrs V, VI
|----------------------------------------------------------------|
|----------------------------------------------------------------|
|-----------------------------------------------------9----------|
|-------------5------------------7--------------------7----------|
|-7-----------3------------------5-------------------------------|
|-5--------------------------------------------------------------|


 4/4
                            ~~
|-19b20----(19)---(19)---|-19------------|
|------------------------|---------------|
|------------------------|---------------|
|------------------------|---------------|
|------------------------|---------------|
|------------------------|---------------|
|
|------------------------|---------------|
|------------------------|---------------|
|------------5-----------|-----------5---|
|---------------9--------|---------------|
|--7---------------------|--7------------|
|--5---------------------|--5----5-5-----|


                       D5/A
       \1/
                        ~~
|-17--17s==19----17--|-15----|
|--------------------|-------|
|--------------------|-------|
|--------------------|-------|
|--------------------|-------|
|--------------------|-------|
|
|--------------------|-------|
|--------------------|-------|
|--------------------|--7----|
|-------------9------|--7----|
|--7-----------------|--0----|
|--5-----------------|-------|


  N.C.
   T        T        T        T        T        T        T        T
|-22p17p13-22p17p13-20p17p13-20p17p13-18-17p13-18-17p13-------------------|
|-------------------------------------------------------22p17p13-22p17p13-|
|-------------------------------------------------------------------------|
|-------------------------------------------------------------------------|
|-------------------------------------------------------------------------|
|-------------------------------------------------------------------------|
|
|-------------------------------------------------------------------------|
|-------------------------------------------------------------------------|
|-------------------------------------------------------------------------|
|-----------------------------7-------------------------------------------|
|--5--------------------------5--------------------------8----------------|
|--3-----------------------------------------------------6----------------|


   T          T          T        T        T        T        T        T
|-----------------------------------------------------------------------------|
|-20p17p==13-20p17p==13-18p17p13-18p17p13-18p17p13-18p17p13-------------------|
|-----------------------------------------------------------19p14p12-19p14p12-|
|-----------------------------------------------------------------------------|
|-----------------------------------------------------------------------------|
|-----------------------------------------------------------------------------|
|
|  PM--------------|                                         PM------|
|-----------------------------------------------------------------------------|
|-----------------------------------------------------------------------------|
|-----------------------------------------------------------------------------|
|------------------------7----------------------------------------------------|
|------------------------5-----------------8----------------------------------|
|--0----0-----0----0-----------------------6-----------------0--------0-------|


   T        T        T        T          T              T        T
|-------------------------------------|-------------------------20--(20)\--|
|-------------------22p17p13----------|-22p==17p==13-----------------------|
|-22p17p14-------------------21p17p12-|----------------21p17p12------------|
|----------21p17p14-------------------|------------------------------------|
|-------------------------------------|------------------------------------|
|-------------------------------------|------------------------------------|
|
|                                        PM----------|
|-------------------------------------|------------------------------------|
|-------------------------------------|------------------------------------|
|-------------------------------------|------------------------------------|
|--------------7----------------------|-----------------7------------------|
|--5-----------5-----------8----------|-----------------5--------8----8----|
|--3-----------------------6----------|--0-0----0----0-----------6----6----|


|----------------------------------------|
|---------------------17--13----------13-|
|-17-14------------14--------14----14----|
|-------15----15----------------14-------|
|----------15----------------------------|
|----------------------------------------|
|
|----------------------------------------|
|----------------------------------------|
|----------------5----(5)----------------|
|-----------5----------------------------|
|----------------------------------------|
|--3-------------------------------------|


|-17--13---------------13-20--17----------17--|
|--------15-----15---------------18----18-----|
|-----------14----------------------17--------|
|---------------------------------------------|
|---------------------------------------------|
|---------------------------------------------|
|
|---------------------------------------------|
|---------------------------------------------|
|------------------(5)----(5)-----------------|
|-----------(5)-------------------------------|
|---------------------------------------------|
|-(3)-----------------------------------------|


  G/D                                         N.C.
                                ~~~~
|-22b23------19-20-|-19b20====(19)----(19)r-|-19---15---17--|
|------------------|------------------------|---------------|
|------------------|------------------------|---------------|
|------------------|------------------------|---------------|
|------------------|------------------------|---------------|
|------------------|------------------------|---------------|
|
|------------------|------------------------|---------------|
|-^0---------------|-^0---------------------|---------------|
|-^0---------------|-^0---------------------|---------------|
|-^0---------------|-^0---------------------|-------7-------|
|------------------|------------------------|--5----5----8--|
|------------------|------------------------|--3---------6--|


                                               \2.5
|-(17)-14----15--12---|---------------------|---------------------|
|---------------------|-13-----12-----12h13p|=12------------------|
|---------------------|---------------------|---------------------|
|---------------------|---------------------|---------------------|
|---------------------|---------------------|---------------------|
|---------------------|---------------------|---------------------|
|
|                 PM|      PM|    PM-----|
|---------------------|---------------------|---------------------|
|---------------------|---------------------|---------------------|
|---------------------|---------------------|---------------------|
|---------------------|---------5-----------|---------------------|
|---8-----7---5-------|--5------3-----------|-------------5S3S5\--|
|---6-----5---3---0-0-|--3-0-0----0-0--0--0-|--0----0-0-0-3S1S3\--|


 Solo III
  N.C.
 6/4
   |
|-10-0-0-0-7-0-0-0-8-0-0-0-7-0-0-0-8-0-0-0-5-0-0-0-|
|--------------------------------------------------|
|--------------------------------------------------|
|--------------------------------------------------|
|--------------------------------------------------|
|--------------------------------------------------|
|
|--------------------------------------------------|
|--------------------------------------------------|
|--------------------------------------------------|
|--------------------------------------------------|
|----------8-------7-------------------------------|
|--0---0-------------------0---0---8-------7-------|


|-7-0-0-0-5-0-0-0-3-0-0-0-5-0-0-0-7-0-0-0-5-0-0-0-|
|-------------------------------------------------|
|-------------------------------------------------|
|-------------------------------------------------|
|-------------------------------------------------|
|-------------------------------------------------|
|
|-------------------------------------------------|
|-------------------------------------------------|
|-------------------------------------------------|
|-------------------------------------------------|
|---------8-------7-------8---7-------------------|
|-0---0---------------------------8---7---8-------|


|-----------------------------------------------------------|
|------------------------------12---------------12-13-12----|
|-10-12---14-10-12-14-10-12-14----14---12-12-14----------14-|
|-----------------------------------------------------------|
|-----------------------------------------------------------|
|-----------------------------------------------------------|
|
|-----------------------------------------------------------|
|-----------------------------------------------------------|
|-----------------------------------------------------------|
|-----------------------------------------------------------|
|-------------8--------7------------------------------------|
|--0----0-----------------------0----0-----8--------7-------|


                                 ~~~~
|---------------------------------------------|
|-15-13---12----------------------------------|
|------------14-12-10-------------------------|
|---------------------14-12-10-[12]-----------|
|---------------------------------------------|
|---------------------------------------------|
|
|---------------------------------------------|
|---------------------------------------------|
|---------------------------------------------|
|---------------------------------------------|
|-------------8--------7---------8--7-----10--|
|--0----0-----------------------------8-7--8--|


|-----------------------------------------------------------|
|-----------------------------------------------------------|
|--------------------------------------------------14h15p14-|
|---------------------14h15p14------------14-15-17----------|
|------------13-15-17----------13-15---17-------------------|
|-13-15---17------------------------------------------------|
|
|-----------------------------------------------------------|
|-----------------------------------------------------------|
|------------10--------9------------------------------------|
|-----------------------------------------10--------9-------|
|-----------------------------------------------------------|
|--0----0-----------------------0----0----------------------|


|------------------15h17p15-----------------------------15-17---|
|---------15-17-18----------18---------------15---17-18---------|
|-15-17---------------------------15---17-18--------------------|
|------------------------------17-------------------------------|
|---------------------------------------------------------------|
|---------------------------------------------------------------|
|
|---------------------------------------------------------------|
|---------------------------------------------------------------|
|------------10--------9-------10----9--------------------------|
|-----------------------------------------10----9----10---------|
|---------------------------------------------------------------|
|--0----0-------------------------------------------------------|


                   \0.5/   \0.5/
                                       TP  TP    TP   TP  TP
|-16b17-------16-(16)----(16)---------16--17--|-19---20--22-----------------|
|--------------------------------17-----------|-----------------------------|
|---------------------------------------------|-----------------------------|
|---------------------------------------------|-----------------------------|
|---------------------------------------------|-----------------------------|
|---------------------------------------------|-----------------------------|
|
|---------------------------------------------|-----------------------------|
|---------------------------------------------|-----------------------------|
|---------10---9------------------------------|------10---9--10-9-----------|
|-------------------------------------10---9--|-------------------10-9-10\--|
|---------------------------------------------|-----------------------------|
|--0----0-------------------------0-0---------|--0-0------------------------|


 Breakdown
  N.C.
                             ~~~~
|-22b24==================|=(22)-----------------|
|------------------------|----------------------|
|------------------------|----------------------|
|------------------------|----------------------|
|------------------------|----------------------|
|------------------------|----------------------|
|
| Gtrs V, VI
|  PM--------------------------------------------
|------------------------|----------------------|
|------------------------|----------------------|
|------------------------|----------------------|
|------------------------|----------------------|
|--2-----2-2----2-2-2----|---2--2-2----2--2--2--|
|--0-----0-0----0-0-0----|---0--0-0----0--0--0--|


                       \2.5
                       ~~~~~
|-------------------|-------------------------|
|-------------------|-------------------------|
|-------------------|-------------------------|
|-2-----------------|-(2)---------------------|
|-------------------|-------------------------|
|-------------------|-------------------------|
|
|----------------------------------------|
|-------------------|-------------------------|
|-------------------|-------------------------|
|-------------------|-------------------------|
|-------------------|-------------------------|
|-2-2-2----2-2-2----|--2----2-2----2--2--2----|
|-0-0-0----0-0-0----|--0----0-0----0--0--0----|


  Gtr V
   PM--------------------------------------------------------
|-------------------------------|---------------------------|
|-------------------------------|---------------------------|
|-------------------------------|---------------------------|
|-------------------------------|---------------------------|
|--2--2--2--------2--2--2-------|--2--2--2-------2---2--2---|
|--0--0--0--------0--0--0-------|--0--0--0-------0---0--0---|
|
| Gtr VI
|                           PM|                         PM|
|-------------------------------|---------------------------|
|-------------------------------|---------------------------|
|-------------------------------|---------------------------|
|-------------------------------|---------------------------|
|-[5]---[7]---------------------|-[5]---[7]--8-7------------|
|------------0-0-[8]---[7]--0-0-|----------------8-7-8--0-0-|


 -------------------------------------------------------|
|-------------------------------|----------------------------|
|-------------------------------|----------------------------|
|-------------------------------|----------------------------|
|-------------------------------|----------------------------|
|--2--2--2--------2--2--2-------|--2--2--2-------2---2--2----|
|--0--0--0--------0--0--0-------|--0--0--0-------0---0--0----|
|
|                           PM|
|-------------------------------|----------------------------|
|-------------------------------|----------------------------|
|-------------------------------|----------------------------|
|-------------------------------|----------------------------|
|-[5]---[7]---------------------|-[5]---[7]--8-7-------------|
|------------0-0-[8]---[7]--0-0-|----------------8-7-8-------|


  PM------------------------------------------------------------
|-------------------------------|------------------------------|
|-------------------------------|------------------------------|
|-------------------------------|------------------------------|
|-------------------------------|------------------------------|
|-2-2---2--------2-2---2--------|-2-2---2---------2----2----2--|
|-0-0---0--------0-0---0--------|-0-0---0---------0----0----0--|
|
|-------------------------------|------------------------------|
|-------------------------------|------------------------------|
|-----[10]--[9]-----------------|-----[10]--[9]--10-9----------|
|--------------------[10]--[9]--|---------------------10-9-10--|
|-------------------------------|------------------------------|
|-0-0------------0-0------------|-0-0--------------------------|


 ----------------------------------------------------------|
|-------------------------------|---------------------------------|
|-------------------------------|---------------------------------|
|-------------------------------|---------------------------------|
|-------------------------------|---------------------------------|
|-2-2---2--------2-2---2--------|-2-2---2---------2----2----2-----|
|-0-0---0--------0-0---0--------|-0-0---0---------0----0----0-----|
|
|-------------------------------|---------------------------------|
|-------------------------------|---------------------------------|
|-----[10]--[9]-----------------|-----[10]--[9]--10-9-------------|
|--------------------[10]--[9]--|---------------------10-9-10\----|
|-------------------------------|---------------------------------|
|-0-0------------0-0------------|-0-0-----------------------------|


 Verse
  N.C.
 4/4
  Gtrs V, VI
|----------------------|-------------------|
|----------------------|-------------------|
|----------------------|---9-9---7-7-10-10-|
|-14-14---12-12---17\--|---7-7---5-5--8--8-|
|-12-12-0-10-10-0-15\--|-0-----0-----------|
|----------------------|-------------------|


                     \1/   \1/   \1/
|------------|-------------------------|
|------------|-------------------------|
|-9-------8--|-(8)--(8)---(8)---(8)----|
|-7---7---6--|-(6)--(6)---(6)---(6)----|
|-----5------|-------------------------|
|------------|-------------------------|


|----------------------|-------------------|----------|-----------------------|
|----------------------|-------------------|----------|-----------------------|
|----------------------|---9-9---7-7-10-10-|-9-----8--|---------6-7-9-7-6-----|
|-14-14---12-12---17\--|---7-7---5-5--8--8-|-7--7--6--|---6-7-9-----------6---|
|-12-12-0-10-10-0-15\--|-0-----0-----------|----5-----|-9---------------------|
|----------------------|-------------------|----------|-----------------------|


 Verse
  N.C. Am/E     N.C.
 8/4
  PM|
|--------------------0----|------------------------|
|---------------0---------|------------------------|
|------5-(5)--------------|--/7--------9-----------|
|------7-(7)--------------|--/9-------------10\----|
|-0-0--7-(7)--------------|------------------------|
|-------------------------|------------------------|


                     PM|
|------------------------|-----------------------|
|------------------------|-----------------------|
|------------------------|-----------------------|
|-----7------------------|-----7-----------------|
|-5---5---8----7--5------|-5---5---8----7--5--7--|
|-3-------6----5--3--0-0-|-3-------6----5--3--5--|


       Am/E     N.C.
  PM|
|----------------------------|------------------------------<12>---|
|----------------------------|------------------------<12>---------|
|------5-(5)---------5-------|-/7--------------<7>-----------------|
|------7-(7)----<7>-----<7>--|-/9---------<7>----------------------|
|-0-0--7-(7)-----------------|-------<7>---------------------------|
|----------------------------|-------------------------------------|


                     PM----------------------------------|
|------------------------|---------------------------------|
|------------------------|---------------------------------|
|------------------------|---------------------------------|
|-----7------------------|---------------------------------|
|-5---5---8----7--5------|-------5-5-5---------------------|
|-3-------6----5--3--0-0-|-3-3-3-------6-6-6-5-5-5-3-3-5-5-|


   Chorus
    N.C.
   6/4
    Gtr V
||------------------------------|--------------------------|
||o-----------------------------|--------------------------|
||------------------------------|--------------------------|
||------------------------------|--------------------------|
||o-----[8]--[7]----------------|-----[8]--[7]--8-7--------|
||--0-0-----------0-0-[8]--[7]--|-0-0---------------8-7-8--|
|
|   Gtr VI
||------------------------------|--------------------------|
||o-----------------------------|--------------------------|
||------------------------------|--------------------------|
||------------------------------|--------------------------|
||o-----[8]--[7]----------------|-----[8]--[7]--8-7--------|
||--0-0-----------0-0-[8]--[7]--|-0-0---------------8-7-8--|


|-------------------------------|---------------------------------||
|-------------------------------|--------------------------------o||
|-------------------------------|---------------------------------||
|-------------------------------|---------------------------------||
|------[8]--[7]-----------------|------[8]--[7]---8-7------10----o||
|-0-0------------0-0--[8]--[7]--|-0-0------------------8-7--8-----||
|
|-------------------------------|---------------------------------||
|-------------------------------|--------------------------------o||
|-----[10]--[9]-----------------|-----[10]--[9]--10-9-------------||
|--------------------[10]--[9]--|---------------------10-9-10\----||
|-------------------------------|--------------------------------o||
|-0-0------------0-0------------|-0-0-----------------------------||


  Gtrs V, VI
|-----------------------|---------------------------|
|-----------------------|---------------------------|
|-----10--9-------------|-----10--9--10-9-----------|
|----------------10--9--|-----------------10-9-10\--|
|-----------------------|---------------------------|
|-0-0--------0-0--------|-0-0-----------------------|


|-----------------------|-----------------------------|
|-----------------------|-----------------------------|
|-----10--9-------------|-----10--9--10-9-------------|
|----------------10--9--|-----------------10-9-10\----|
|-----------------------|-----------------------------|
|-0-0--------0-0--------|-0-0-------------------------|


 Outro
  C       Bm       G5/D    Eb5       N.C.
                                    4/4
|----------------|-----------------|--------------*|
|----------------|-----------------|--------------*|
|----------------|-----------------|--------------*|
|-10------9------|-12------13------|--------------*|
|--7------5------|-10------13------|-14-14-14\----*|
|--8------7------|-10------11------|-12-12-12\----*|


Tablature Legend
----------------
 h   - hammer-on
 p   - pull-off
 b   - bend
 pb  - pre-bend
 r   - bend release (if no number after the r, then release immediately)
 /  - slide into or out of (from/to "nowhere")
 s   - legato slide
 S   - shift slide
  - natural harmonic
[n]  - artificial harmonic
n(n) - tapped harmonic
 ~   - vibrato
 tr  - trill
 T   - tap
 TP  - trem. picking
 PM  - palm muting
n/  - tremolo bar dip; n = amount to dip
 n  - tremolo bar down
 n/  - tremolo bar up
/n  - tremolo bar inverted dip
 =   - hold bend; also acts as connecting device for hammers/pulls
 <>  - volume swell (louder/softer)
 x   - on rhythm slash represents muted slash
 o   - on rhythm slash represents single note slash

Misc Legend
-----------
 |  - bar
||  - double bar
||o - repeat start
o|| - repeat end
*|  - double bar (ending)
 :  - bar (freetime)
 $  - Segno
 &  - Coda
Tempo markers -  = BPM(8/16=s8/s16),
where s8 = swing 8ths, s16 = swing 16ths

            
            
Suggest correction
Creating personal tab
Creating personal tab
You can edit any tab online and save it as your Personal.

You can edit, replace or remove any tab part or add personal notes – all changes will be seen only by you.

Personal tabs can be accessed anytime from any device, even offline.
Learn more »
Give kudos to tab author, rate the tab!
1 2 3 4 5
comments
print report bad tab
guest
You may want to rate the tab now too:
select rating
Wanna post a correction for this tab? Suggest correction