Oops, an error
Loading. Please wait.

Danced Live bass

by Toyah
280 views 1 this week
no commentswrite comment
1 2 3 4 5
3 more votes to show rating
add to favorites
×
Save as Personal and add changes to this tab that will be seen only by you. Learn more ›
×
You can save this tab as Personal to edit and correct it or add notes. All changes will be seen only by you. Learn more »
launch autoscroll
font size
0
reset
guitar tuner
edit
Autoscroll
slow
fast
+/-
esc
set tempo
stop
Author
Difficulty
-------------------------------------------------------------------------------
                             Danced (live) - Toyah                             
-------------------------------------------------------------------------------

Tabbed by: TBone142
e-mail: tbone142@freemail.hu

Tuning: standard EADG

Intro:

      NH     NH      NH     NH        NH     NH     NH     NH        NH                  
      Q      Q       Q      Q         Q      Q      Q      Q         Q    H        Q     
G|-------------------------------|------------------------------|-----------------------|
D|----7--------------------------|----7-------------7-----------|----7------------------|
A|-----------7-------12-----7----|-----------7-------------7----|-----------------------|
E|-------------------------------|------------------------------|-----------------------|

Verse:

    W                   W                   W                   W                 
G|-------------------|-------------------|-------------------|-------------------|
D|-------------------|-------------------|-------------------|-------------------|
A|-------------------|-------------------|-------------------|-------------------|
E|--8----------------|--L----------------|--7----------------|--L----------------|

    W                   H.           Q       W                   W                 
G|-------------------|--------------------|-------------------|-------------------|
D|-------------------|--------------------|-------------------|-------------------|
A|-------------------|--------------------|-------------------|-------------------|
E|--5----------------|--L------------7----|--8----------------|--L----------------|

    W                   W                   W                   H        Q    Q     
G|-------------------|-------------------|-------------------|---------------------|
D|-------------------|-------------------|-------------------|---------------------|
A|-------------------|-------------------|-------------------|---------------------|
E|--7----------------|--L----------------|--5----------------|--L--------5----7----|

    W                   W                   W                   W                 
G|-------------------|-------------------|-------------------|-------------------|
D|-------------------|-------------------|-------------------|-------------------|
A|-------------------|-------------------|-------------------|-------------------|
E|--8----------------|--L----------------|--7----------------|--L----------------|

    W                   Q.     Q.     Q       W                   W                 
G|-------------------|---------------------|-------------------|-------------------|
D|-------------------|--7------------------|-------------------|-------------------|
A|-------------------|---------7-----------|-------------------|-------------------|
E|--5----------------|----------------5----|--8----------------|--L----------------|

    W                   W                   W                   E  E  Q    Q    Q     
G|-------------------|-------------------|-------------------|-----------------------|
D|-------------------|-------------------|-------------------|--7--5-----------------|
A|-------------------|-------------------|-------------------|--------7--------------|
E|--7----------------|--L----------------|--5----------------|-------------5----7----|

    W                   W                   W                   W                 
G|-------------------|-------------------|-------------------|-------------------|
D|-------------------|-------------------|-------------------|-------------------|
A|-------------------|-------------------|-------------------|-------------------|
E|--8----------------|--L----------------|--7----------------|--L----------------|

    W                   H        Q    Q       H.            Q        H        H         
G|-------------------|---------------------|---------------------|---------------------|
D|-------------------|---------------------|---------------------|---------------------|
A|-------------------|---------------------|---------------10----|---L-----------------|
E|--5----------------|--L--------5----7----|--8------------------|------------8--------|

    W                   W                   W                   W                 
G|-------------------|-------------------|-------------------|-------------------|
D|-------------------|-------------------|-------------------|-------------------|
A|-------------------|-------------------|-------------------|-------------------|
E|--7----------------|-------------------|-------------------|-------------------|


Main theme:

    E  E  E  E  E  E  E  E     E  E  E  E  E  E  E  S S 
G|--------------------------|---------------------------|
D|--------------------------|---------------------------|
A|--5--4--------------------|-----------------------4-4-| x3
E|--------5-----5-----5-----|--5-----5-----5-----5------|

    E  E  E  E  E  E  E  E     E  E  E  E  E  E  E  E   
G|--------------------------|--------------------------|
D|--------------------------|-----------------------4--|
A|--5--4--------------------|-----------------4--5-----|
E|--------5-----5-----5-----|--5-----5-----5-----------|

    E  E  E  E  E  E  E  E     E  E  E  E  E  E  E  S S  
G|--------------------------|---------------------------|
D|--5--4--------------------|-----------------------4-4-|
A|--------5-----5-----5-----|--5-----5-----5-----5------|
E|--------------------------|---------------------------|

    E  E  E  E  E  E  E  E     E  E  E  E  E  E  E  E   
G|--------------------------|-----------------------7--|
D|--5--4--------------------|--------------------------|
A|--------5-----5-----5-----|--5-----5-----5-----5-----|
E|--------------------------|-----------------5--------|

    E  E  E  E  E  E  E  E     E  E  E  E  E  E  E  S S  
G|--------------------------|---------------------------|
D|--------------------------|---------------------------|
A|--5--4--------------------|-----------------------4-4-|
E|--------5-----5-----5-----|--5-----5-----5-----5------|

    E  E  E  E  E  E  E  S S    E  E  E  E  E  E  E  E     E  E  E  E  E  E  E    E   
G|---------------------------|--------------------------|----------------------------|
D|---------------------------|--------------------------|----------------------------|
A|--5--4-----------------4-4-|--7--7--7--7--7--7--7--7--|--7--7--7--7--7--7--7s--12--|
E|--------5-----5-----5------|--------------------------|----------------------------|

Chorus:

    E  E  E  H        E     E  E  E  Q     S  S  Q        E  E  E  E  Q.     S S  
G|-----------------------|----------------12-12-14\----|-------------------------|
D|-----------------------|-----------------------------|-------------------------|
A|-----------------------|-----------------------------|---------------------5-5-|
E|--3--5-----5--------L--|--3--5-----5-----------------|--3--5-----5--L----------|

    E  E  E  E  E  E  E  E     E  E  E  H        E     E  E  E  H        E   
G|--------------7--------6--|-----------------------|-----------------------|
D|--------------------------|-----------------------|-----------------------|
A|--7--7--7--5-----5--4-----|-----------------------|-----------------------|
E|--------------------------|--3--5-----5--------L--|--3--5-----5--------L--|

    E  E  E  Q.     E  E     E  E  E   E  Q    Q     
G|------------------------|-------------------------|
D|------------------------|-------------------------|
A|---------------------5--|--7--7--7p--5--5----4----|
E|--3--5-----5------5-----|-------------------------|

Bridge:

    W                   W                 
G|-------------------|-------------------|
D|-------------------|-------------------|
A|-------------------|-------------------|
E|--3----------------|--L----------------|

Main theme:

   E  E  E  E  E  E  E  E     E  E  E  E  E  E  E  S S
G|-------------------------|--------------------------|
D|-------------------------|--------------------------|
A|-5--4--------------------|-----------------------4-4|	x3
E|-------5-----5-----5-----|--5-----5-----5-----5-----|

    E  E  E  E  E  E  E  E     E  E  E  E  E  E  E  E   
G|--------------------------|--------------------------|
D|--------------------------|-----------------------4--|
A|--5--4--------------------|-----------------4--5-----|
E|--------5-----5-----5-----|--5-----5-----5-----------|

    E  E  E  E  E  E  E  E     E  E  E  E  E  E  E  S S  
G|--------------------------|---------------------------|
D|--5--4--------------------|-----------------------4-4-|
A|--------5-----5-----5-----|--5-----5-----5-----5------|
E|--------------------------|---------------------------|

    E  E  E  E  E  E  E  E     E  E  E  E  E  E  E  E   
G|--------------------------|-----------------------7--|
D|--5--4--------------------|--------------------------|
A|--------5-----5-----5-----|--5-----5-----5-----5-----|
E|--------------------------|-----------------5--------|

    E  E  E  E  E  E  E  E     E  E  E  E  E  E  E  S S  
G|--------------------------|---------------------------|
D|--------------------------|---------------------------|
A|--5--4--------------------|-----------------------4-4-|
E|--------5-----5-----5-----|--5-----5-----5-----5------|

    E  E  E  E  E  E  E  S S    E  E  E  E  E  E  E  E     E  E  E  E  E  E  E  E   
G|---------------------------|--------------------------|--------------------------|
D|---------------------------|--------------------------|--------------------------|
A|--5--4-----------------4-4-|--7--7--7--7--7--7--7--7--|--7--7--7--7--7--7--7--7--|
E|--------5-----5-----5------|--------------------------|--------------------------|

Chorus:

    E  E  E  H        E     E  E  E  H        E     E  E  E  Q.     E  E   
G|-----------------------|-----------------------|------------------------|
D|-----------------------|-----------------------|------------------------|
A|-----------------------|-----------------------|------------------5--5--|
E|--3--5-----5--------L--|--3--5-----5--------L--|--3--5-----5------------|

    E  E  E  E  E  E  E  E     E  E  E  H        E     E  E  E  H        E   
G|--------------7--------6--|-----------------------|-----------------------|
D|--------------------------|-----------------------|-----------------------|
A|--7--7--7--5-----5--4-----|-----------------------|-----------------------|
E|--------------------------|--3--5-----5--------L--|--3--5-----5--------L--|

    E  E  E  H        E     E  H.           E   
G|-----------------------|---------------------|
D|-----------------------|---------------------|
A|-----------------------|--7--7---------------|
E|--3--5-----5--------L--|---------------------|

Bridge:

    W                   W                   W                   W                 
G|-------------------|-------------------|-------------------|-------------------|
D|-------------------|-------------------|-------------------|-------------------|
A|-------------------|-------------------|-------------------|-------------------|
E|--3----------------|--L----------------|--8----------------|--L----------------|

    W                   W                   W                   W                 
G|-------------------|-------------------|-------------------|-------------------|
D|-------------------|-------------------|-------------------|-------------------|
A|-------------------|-------------------|-------------------|-------------------|
E|--6----------------|--L----------------|--3----------------|--L----------------|

    W                   W                   W                   W                 
G|-------------------|-------------------|-------------------|-------------------|
D|-------------------|-------------------|-------------------|-------------------|
A|-------------------|-------------------|-------------------|-------------------|
E|--8----------------|--L----------------|--6----------------|--L----------------|

Bass solo:

    E  E  E  E  E   E   Q       E  E  E  E   E  E   Q      
G|---------------------------|--------9-------------------|
D|--------7------------12----|-----7-----7----------------|
A|--------------9--10--------|--------------10--9--10/----|
E|--5--------5---------------|--5-------------------------|

    E   E   Q     E  E   Q        E   E   E   E   E  E   Q      
G|-----------------------------|-------------------------------|
D|-----------------------------|-------------------------------|
A|---------14------------------|---------14--------------------|
E|--0--12--------10--9--10/----|--0--12------12--10--9--10/----|

    E  E  Q    E  E    Q       E  E  E    E  Q    E   E   
G|--------9-----------------|--------9s--11--9----7s--6--|
D|-----7--------------------|-----7----------------------|
A|----------------9s--10----|----------------------------|
E|--5----------5------------|--5-------------------------|

     E   E   Q     E    E   Q        E   E   Q     E   E  Q     
G|-------------------------------|-----------------------------|
D|------12-----------------------|------12---------------------|
A|--10------10-------------10----|--10------10----10-----------|
E|----------------10h--12--------|--------------------10--8----|

    Q    E  E  E  E   Q       Q    E  E  E  E  Q     
G|-------------------------|------------------------|
D|-------------------------|----------------7-------|
A|--8----8-----8-----------|--8----8-----8-----8----|
E|----------8-----5s--7----|----------8-------------|

    Q    E   E  E   E  Q       E   E  E   E   E  E   Q     
G|--------------------------|-----------------------------|
D|----------10--------------|---------9--11--11--9--------|
A|-----------------10-------|-----11----------------11----|
E|--8----8------8------8----|--9--------------------------|

    E  E  E  E    Q     Q       E  E  E    E   Q    Q      
G|---------------------------|--------9s--11s--9----7\----|
D|-----7---------------12----|-----7----------------------|
A|-----------9s--10----------|----------------------------|
E|--5-----5------------------|--5-------------------------|

    E   E   E    E    Q     Q       E   E   E   E   E   E   E   E   
G|-------------------------------|---------------------------------|
D|-------------------------------|---------------------------------|
A|---------14s--16s--14----------|---------14------12------10------|
E|--0--12------------------12----|--0--12------12------12------12--|

    E  E  E  E  Q    Q       E  E  E    E  E   E  E  E   
G|--------9---------------|--------9s--11--9s--7--7-----|
D|-----7-----7-------7----|-----7-----------------------|
A|------------------------|--------------------------9--|
E|--5-----------5---------|--5--------------------------|

     Q     E   E   Q     Q        E   S  S  Q     E   E   E   E   
G|----------------------------|----------------------------------|
D|----------------------12----|----------------------------------|
A|--10------------10----------|--10--------10------------10------|
E|--------10--12--------------|------10-10-------10--10------10--|

    Q    Q    Q    E  E     Q    Q     E  E  E  E   
G|-----------------------|-------------------------|
D|-----------------------|-------------------------|
A|--8----7----5----3-----|----------------7--8-----|
E|--------------------5--|--1----8----10--------7--|

    Q    Q    Q    Q       Q    Q    E   E   Q     
G|----------------------|-------------------------|
D|----------------------|------------9--10--11----|
A|----------------------|-------------------------|
E|--8----8----8----8----|--9----9-----------------|

(Guitar solo:)

    E  E  E  E  Q    E  E     E  E  E  E  E  E  E  E   
G|-------------------------|--------------------------|
D|--------7-----5----7-----|--5-----7-----5-----7-----|
A|-----7-----7----------7--|-----7-----7-----7--------|
E|--5----------------------|--------------------------|

    E  E  Q    E  E  Q       E  E  Q    E  E  Q     
G|------------------------|------------------------|
D|------------------------|-------------------5----|
A|--7-----5----7-----7----|--7-----5----7----------|
E|-----7----------7-------|-----7----------7-------|

    E  E  Q    E    E   Q       E  E  E  E   Q    E  E   
G|---------------------------|--------------------------|
D|-----7---------------12----|-----7--------------7-----|
A|-------------9h--10--------|-----------9--10-------7--|
E|--5-----5------------------|--5-----5-----------------|

    E  E  Q    Q    Q       E  S S Q    E  E  E  E   
G|------------------7----|--------------7-----------|
D|--5----------5---------|--5--------------5--------|
A|-----5--7--------------|-----5-5-7----------9--7--|
E|-----------------------|--------------------------|

    Q    E  E  Q    Q       E  E  E  E  E  E  E  E   
G|-----------------------|--------------------------|
D|-----------------------|--------------------------|
A|--8---------------8----|-----8-----8--------------|
E|-------8--8--1---------|--8-----8-----5--5--6--7--|

    Q    Q    Q    Q       Q    Q    Q    Q     
G|----------------------|----------------------|
D|----------------------|----------------------|
A|----------------------|----------------------|
E|--8----8----8----8----|--9----9----9----9----|

   Q    E.  S S S E   Q       Q    Q    S S E   Q     
G|-------------------------|-------------------------|
D|------7------------------|-------7-----------------|
A|----------------9--10----|----------------9--10----|
E|-5--------5-5------------|--5---------5------------|

    Q    E.  S S S E  Q       Q    Q    E  E  Q     
G|-------------------------|------------4----------|
D|-------2-----------------|-------2-------2-------|
A|-----------------4--5----|------------------5----|
E|--0--------0-0-----------|--0--------------------|

    Q    E.  S E  E   E   E     E  E  E  E   Q     E  E   
G|---------------------------|---------------------------|
D|-------7---------------12--|-----7---------------------|
A|----------------9--10------|-----------9--10----12-----|
E|--5----------5-------------|--5-----5---------------5--|

     E   E   E   E   Q     Q       E  E  E  E  E  E  Q     
G|------------------------------|-------------------------|
D|------------------------12----|-----5-----5-----5--3----|
A|--10------10------10----------|-------------------------|
E|------10------10--------------|--3-----3-----3----------|

    E  E  Q     E  E  Q       E  E  E  E  Q    E  E   
G|-------------------------|-------------------------|
D|-------------10----------|-------------------------|
A|--8-----8-----------8----|--8-----8--8-------8-----|
E|-----8-----------8-------|-----8--------8-------3--|

    E  E  E  E  E  E  E  E     E.  E.  E  E.  E.  E   
G|--------5--5-----5--5-----|----------6--4----------|
D|--------------------------|------6----------6---4--|
A|--3-----------3--------3--|--4---------------------|
E|--------------------------|------------------------|

Bridge (then outro):

    E  E  E  E  E  E  E  E     E  E  E  E  E  E  E  S S 
G|--------------------------|---------------------------|
D|--------------------------|---------------------------|
A|--5--4--------------------|-----------------------4-4-| x3
E|--------5-----5-----5-----|--5-----5-----5-----5------|

    E  E  E  E  E  E  E  E     W                   W                   W                 
G|--------------------------|-------------------|-------------------|-------------------|
D|--------------------------|--7----------------|-------------------|--7----------------|
A|--5--4-----------------7--|-------------------|-------------------|-------------------|
E|--------5-----5-----5-----|-------------------|--5----------------|-------------------|

    W                   W                   W                   W                 
G|-------------------|-------------------|-------------------|-------------------|
D|-------------------|-------------------|-------------------|-------------------|
A|-------------------|-------------------|-------------------|-------------------|
E|--5----------------|--L----------------|--5----------------|--L----------------|

    W                   W                   W                   W                 
G|-------------------|-------------------|-------------------|-------------------|
D|-------------------|-------------------|-------------------|-------------------|
A|-------------------|-------------------|-------------------|-------------------|
E|--5----------------|--L----------------|--5----------------|--L----------------|

    W                   W                 
G|-------------------|-------------------||
D|-------------------|-------------------||
A|-------------------|-------------------||
E|--5----------------|--L----------------||

===============================================================================
Notes: 

Toyah (Toyah Willcox) is an English singer, this song is on Her 1979 album
titled Sheep Farming in Barnet. I did the live version 'cause it's much better.

Official website: http://www.toyahwillcox.com/

As seen and heard in the movie: Urg! A Music War (1981).

The clip on YouTube: http://www.youtube.com/watch?v=wJhu4Db_pfA

I did the bassline in Guitar Pro 5, so if You want the .gp5 file, just mail me!

Where You see duration for a note, but there's no note in the tab that means a
rest.

If You have problems with this tab, write Me a mail what's wrong with it
instead of giving it a bad rating! It'd be better for everyone! Thx!

Duration Legend	       
---------------	       
W - whole	       
H - half	       
Q - quarter	       
E - 8th		       
S - 16th	       
T - 32nd	       
X - 64th	       
. - note dotted	       
|-n-|  - n-tuplets     
		       
Tablature Legend		       
----------------		       
L - tied note		       
x - dead note		       
g - grace note		       
(n) - ghost note		       
> - accentuded note		       
NH - natural harmonic		       
AH - artificial harmonic		       
TH - tapped harmonic		       
SH - semi harmonic		       
PH - pitch harmonic		       
h - hammer on		       
p - pull off		       
b - bend		       
br - bendRelease		       
pb - preBend		       
pbr - preBendRelease		       
brb - bendReleaseBend		       
\n/ - tremolo bar dip		       
\n - tremolo bar dive		       
-/n - tremolo bar Release up		       
/n\ - tremolo bar inverted dip		       
/n - tremolo bar return		       
-\n - tremolo bar Release down		       
S - shift slide		       
s - legato slide		       
/ -  slide into from below or out of upwards
\ -  slide into from above or out of downwards
~ - vibrato
W - wide vibrato
tr - trill
TP - tremolo picking
T - tapping
S - slap
P - pop
< - fade in
^ - brush up
v - brush down
===============================================================================
Suggest correction
Creating personal tab
Creating personal tab
You can edit any tab online and save it as your Personal.

You can edit, replace or remove any tab part or add personal notes – all changes will be seen only by you.

Personal tabs can be accessed anytime from any device, even offline.
Learn more »
Give kudos to tab author, rate the tab!
1 2 3 4 5
comments
print report bad tab
guest
You may want to rate the tab now too:
select rating
Wanna post a correction for this tab? Suggest correction