Oops, an error
Loading. Please wait.

Clap For Alaska tab

28 views 1 this week
no commentswrite comment
1 2 3 4 5
3 more votes to show rating
add to favorites
×
Save as Personal and add changes to this tab that will be seen only by you. Learn more ›
×
You can save this tab as Personal to edit and correct it or add notes. All changes will be seen only by you. Learn more »
launch autoscroll
font size
0
reset
how to read this tab
guitar tuner
edit
Autoscroll
slow
fast
+/-
esc
set tempo
stop
Author
Tabs by: THELOOT

(Chord Key)
  G   D   B   C   A   G+  C+
e|-3---2-----------------------|
B|-3---3---3---1---2-----------|
G|-0---2---4---0---2---4---5---|
D|-0---0---4---2---2---5---5---|
A|-2-------2---3---0---5---3---|
E|-3-------------------3-------|

[Intro]
   G                                       C                             G
e|--------------------------------|------|-------------------------------------------------------------|
B|------3---3-------3---3---3-----|------|-----3---3-------3---3---3---------3---3-------3---3---3-----|
G|----0---0---0-4-0---0---0---0-4-|-(2x)-|---0---0---0-4-0---0---0---0-4---0---0---0-4-0---0---0---0-4-| (3x)
D|--------------------------------|------|-------------------------------------------------------------|
A|--------------------------------|------|-3-----------------------------------------------------------|
E|-3------------------------------|------|-------------------------------3-----------------------------|

   D                               C
e|-----2---2---2---2---2---2---2-------0-------0-----------------------------|
B|-------3---3---3---3---3---3---3-------1-------1-1-------------------------|
G|---2---------------------------------------------0-------------------------|
D|-0---------------------------------2-------2-----2-------------------------|
A|---------------------------------3-------3-------3-------------------------|
E|---------------------------------------------------------------------------|

[Verse 1]
G         D             G           D
Now I'm a heartache and I've had my say
          A (Fill 1)                                 D
And there ain't no point to this whole thing, by the way
G              B         G            B
But I'm trying harder to foresee that day
           C (Fill 1)                         D
When I can pack my bags and make it down your way

    (Fill 1)
e|------------|
B|------------|
G|-9-11-12-5--|
D|-x--x--x-x--|
A|-7--9-10-3--|
E|------------|

[Chorus]
      G+
But I know if I come back down they're gonna get me
                                             C+
But I know if I come back down they're gonna get me
                                             G+
But I know if I come back down they're gonna get me
e|------------------------------------------------------------|
B|------------------------------------------------------------|
G|-4-4-4-4-4-------4-4-4-4-4-------4-4-4-4-4-------4-4-4-4-4--|
D|-5-5-5-5-5-------5-5-5-5-5-------5-5-5-5-5-------5-5-5-5-5--|
A|-5-5-5-5-5-x-x-x-5-5-5-5-5-x-x-x-5-5-5-5-5-x-x-x-5-5-5-5-5--|
E|-3-3-3-3-3-x-x-x-3-3-3-3-3-x-x-x-3-3-3-3-3-x-x-x-3-3-3-3-3--|

[Verse 2]
G                    D             G            D
The snakes and their charmers were hard up that day
     A (Fill 1)                              D
So I looked right twice and I went the other way
G                B            G              D
The butchers and barbers were not nice, they say
         C (Fill 1)                                D
I had to tell them twice that I'll find out my own way

[Chorus]
      G+
But I know if I come back down they're gonna get me
                                             C+
But I know if I come back down they're gonna get me  (6x)
                                             G+
But I know if I come back down they're gonna get me

[Outro]
   G                 G                 C                 G
e|-3-3-5-5-5-5-5-5-3-3-3-5-5-5-5-5-5-3-----5-5-5-5-5-5-3-3-3-5-5-5-5-5-5-3--|
B|-3-3-3-3-3-3-3-3-3-3-3-3-3-3-3-3-3-3-1-1-3-3-3-3-3-3-3-3-3-3-3-3-3-3-3-3--|
G|-0-0---------------0-0---------------0-0---------------0-0----------------|
D|-0-0---------------0-0---------------2-2---------------0-0----------------|
A|-2-2---------------2-2---------------3-3---------------2-2----------------|
E|-3-3---------------3-3---------------------------------3-3----------------|

            
            
Suggest correction
Creating personal tab
Creating personal tab
You can edit any tab online and save it as your Personal.

You can edit, replace or remove any tab part or add personal notes – all changes will be seen only by you.

Personal tabs can be accessed anytime from any device, even offline.
Learn more »
Give kudos to tab author, rate the tab!
1 2 3 4 5
comments
print report bad tab
guest
You may want to rate the tab now too:
select rating
Wanna post a correction for this tab? Suggest correction