Oops, an error
Loading. Please wait.
17 views 1 this week
no commentswrite comment
1 2 3 4 5
3 more votes to show rating
add to favorites
launch autoscroll
font size
0
reset
how to read this tab
guitar tuner
×
Best way to learn
"Sur"
Autoscroll
slow
fast
+/-
esc
set tempo
stop
MI                  SI              LA
San Juan y Boedo antiguo y todo el cielo,
                                MI
Pompeya y, más allá, la inundación,
SI                          MI
tu melena de novia en el recuerdo,
      SI                        LA
y tu nombre flotando en el adiós...

La esquina del herrero, barro y pampa,
tu casa, tu vereda y el zanjón
y un perfume de yuyos y de alfalfa
que me llena de nuevo el corazón.


MI                    SI
Sur... paredón y después...
LA                     MI
Sur... una luz de almacén...
LA                          MI
Ya nunca me veras como me vieras,
                   SI
Recostado en la vidriera
         MI
y esperándote,
     LA                          MI
Ya nunca alumbrare con las estrellas
                       SI
Nuestra marcha sin querellas
                      MI
Por las noches de Pompeya.
    FA#m                    SI
Las calles y las lunas suburbanas
                     LA
y mi amor en tu ventana
                       MI  SI   LA
Todo ha muerto, ya lo se.

Solo1:
1|--------------------------------------------------------------
2|--------------------------------------------------------------
3|--------------------------------------------------------------
4|--------------------------------------------------------------
5|-------8/10-8-7-5---------------0-9-0-9-----------------------
6|-5---5-------------7-5-7--3-----------------------------------

1|---------------------------------------------------------------
2|---------------------------------------------------------------
3|---------------------------------------------------------------
4|---------------------------------------------------------------
5|-------7-8/10-8-7-5--7/8-7-5-5/7-5--4-4/5-4-2-2/4-2------------
6|-5---5-----------------------------------------------3--0------


San Juan y Boedo antiguo, cielo perdido,
Pompeya y, al llegar al terraplén,
Tus veinte años temblando de cariño
Bajo el beso que entonces te robe.
Nostalgia de las cosas que han pasado,
Arena que la vida se llevo,
Pesadumbre del barrio que ha cambiado
Y amargura del sueño que murió.

Sur... paredón y después...
Sur... una luz de almacén...

Solo2:

1|--10-9-----------10-----------------------------------------
2|--------11--9/11----11-10--9-11-9-13^--13/11--9-------------
3|------------------------------------------------------------
4|------------------------------------------------------------
5|------------------------------------------------------------
6|------------------------------------------------------------

1|---12/13---12-----------------------------------------------
2|--------------12/13-11-11/13--11/13--(*)--------------------
3|------------------------------------------------------------
4|------------------------------------------------------------
5|------------------------------------------------------------
6|------------------------------------------------------------

Ahi estan los Solos, el ultimo esta incompleto ,pero ya voy a sacar
lo qe falta. pero es entre la segunda y la tercer cuerda y entre el
traste 12 y el 19.
Un hermoso tango de Homero Manzi y una version aún mas hermosa.
Con mucho cariño desde Corrientes Capital a toda Latinoamerica...
Suggest correction
Give kudos to tab author, rate the tab!
1 2 3 4 5
comments
print report bad tab
guest
You may want to rate the tab now too:
select rating
Wanna post a correction for this tab? Suggest correction