Oops, an error
Loading. Please wait.

Brown Chicken Brown Cow Bass Tab

662 views 3 this week
no commentswrite comment
1 2 3 4 5
3 more votes to show rating
add to favorites
launch autoscroll
font size
0
reset
guitar tuner
Autoscroll
slow
fast
+/-
esc
set tempo
stop
Help us to improve Ultimate-Guitar.com Take our survey!
×
-----------------------------------------------------------------------------
                     Brown Chicken Brown Cow - Trace Adkins
-----------------------------------------------------------------------------

Tabbed by: Coutnry Bass
E-mail: aaron.white8@education.nsw.gov.au

Tuning: Standard

Intro

G|---------------------------|------------|
D|---------------------------|------------|
A|---------------------------|------------| x7
E|--0-0----------0-0---------|--0-0--0-0--|

Verse

G|---------------------------------------------------------------|
D|---------------------------------------------------------------|
A|---------------------------------------------------------------|
E|--0-0--0-0-(x4)--5-5--5-5----5-5--5-5----0-0--0-0----0-0--0-0--|

Pre-Chorus

G|------------------|
D|------------------|
A|------------------|
E|--7-(x8)-5-(x16)--|

Chorus

G|-------------------------------------------------------------|
D|-------------------------------------------------------------|
A|-------------------------------------------------------------|
E|--0-0--0--0-0--0--0-0--0--5-6--0-0--0--0-0--0--0-0--0--5-6-5-|

G|-----------------|
D|-----------------|
A|-----------------|
E|--0-0--0-0-(x4)--|

Bridge

G|-------------------------------------|
D|-------------------------------------|
A|-------------------------------------|
E|--7-(x16)-5-(x16)-0-(x8)-0--0--0--0--|

Outro

G|-----------|    |--------------------------|
D|-----------|    |--------------------------|
A|-----------| x7 |--------------------------|
E|--0-0--0-0-|    |--7-5-0-5--0-0-------0-0--|

Playing Order

Intro
Verse
Pre-Chorus
Chorus
Verse
Pre-Chorus 
Chorus
Bridge
Chorus
Outro

| /  slide up
| \  slide down
| h  hammer-on
| p  pull-off
| ~  vibrato
| +  harmonic
| x  Mute note
=============================================================================
Suggest correction
Give kudos to tab author, rate the tab!
1 2 3 4 5
comments
print report bad tab
guest
You may want to rate the tab now too:
select rating
Wanna post a correction for this tab? Suggest correction