Oops, an error
Loading. Please wait.

Proud To Be Here Tab

288 views 1 this week
2 commentsread comments
1 2 3 4 5
2 more votes to show rating
add to favorites
launch autoscroll
font size
0
reset
how to read this tab
guitar tuner
Autoscroll
slow
fast
+/-
esc
set tempo
stop
Help us to improve Ultimate-Guitar.com Take our survey!
×
Capo
3rd fret
This is my first tab. I didn't see this song on internet
This riff is playing in all song
capo III fret

Intro:

E:---------------------------------------|
B:-----3-1-0------3----------------------|
G:---0----------0------------------------|
D:------------0--------------------------|
A:---------------------------------------|
E:---------------------------------------|

Suggest correction
Give kudos to tab author, rate the tab!
1 2 3 4 5
comments
print report bad tab
2 comments total.
0 reply
N@$z 10 Sep 22, 2012 05:50 PM

Capo II fret

0 reply
Highwaves68 10 Apr 15, 2013 01:24 AM

E:---------------------------------------|
B:-----6-4-3------6----------------------|
G:----3---------3------------------------|
D:---3--------3--------------------------|
A:---------------------------------------|
E:---------------------------------------|

Bb/Eb/Bb/Eb/Fx2/Bb

guest
You may want to rate the tab now too:
select rating
Wanna post a correction for this tab? Suggest correction