Oops, an error
Loading. Please wait.

Swing Tab

version 1
version 1

Intro

11,934 views 3 this week
2 commentsread comments
1 2 3 4 5
accurate
x 6
add to favorites
launch autoscroll
font size
0
reset
how to read this tab
guitar tuner
Tab Pro tools
  • play this tab
  • loop segment
  • change instrument
  • show fretboard
  • metronome
×
Best way to learn
"Swing"
Autoscroll
slow
fast
+/-
esc
set tempo
stop
Contributor
Difficulty
novice
e------------------------------------------------------------------------|
b------------------------------------------------------------------------|
g------------------------------------------------------------------------|
d--3p0-0-5p0-0-7p0-0-5p0-3p0-0-3p0-0-5p0-0-6b~~~-0-3p0-0-5p0-0-7p0-0-5p0-|
a------------------------------------------------------------------------|
E------------------------------------------------------------------------|

e------------------------------------------------------------------------|
b------------------------------------------------------------------------|
g------------------------------------------------------------------------|
d3p0-0-3p0-0------0------------------------------------------------------|
a------------3~~---------------------------------------------------------|
E------------------------------------------------------------------------|


It's really easy to play. I just figured it out when I was messing around. Have fun...PEACE!
comments
print report bad tab
2 comments total.
0 reply
timmy3125 wrote on August 19 2006, 12:24 am

I figured this song out too, just because I liked the main riff but I play it with one note different, I think it sounds just a little closer:
e|---------------------------------------------------|
B|---------------------------------------------------|
G|---------------------------------------------------|
D|--4p0-0-5p0-0-7p0-0-5p0-0-4p0-0--4p0-0-5p0-0--6b^--|
A|---------------------------------------------------|
E|---------------------------------------------------|

e|---------------------------------------------------|
B|---------------------------------------------------|
G|---------------------------------------------------|
D|--4p0-0-5p0-0-7p0-0-5p0-0-4p0-0--4p0-0------0~-----|
A|---------------------------------------3b^r0-------|
E|---------------------------------------------------|

I just use a pulloff from the 4th fret instead of the 3rd to start it off. Your version still sounds dandy but I thought I would propose this way as well.

0 reply
Chris_Parker wrote on September 10 2006, 07:47 pm

sweet, this song used to annoy me because my sister (3) and my mom would keep singing it when it was on the radio, but it grew on me i guess.

good tab, you get a 5

I want to post or [tab]
guest
You may want to rate the tab now too:
select rating
Please do not post tabs as comments. Select "correction" instead!