Oops, an error
Loading. Please wait.

Canon Tab

version 1
version 1

Intro

Whole song

Interactive

28,264 views 3 this week
2 commentsread comments
1 2 3 4 5
x 3
add to favorites
launch autoscroll
font size
0
reset
how to read this tab
guitar tuner
×
Best way to learn
"Canon"
Autoscroll
slow
fast
+/-
esc
set tempo
stop
Author
Difficulty
Capo
advanced
2nd fret
Hey Guys, I love this song so muc, Im going to finish it but
I thought id let some out already, but dont worry ill finish 
the rest later..........  :)

Tuning- (Dadgad)
Capo- 2nd fret

Intro (0:00-0:11)
D--4----2----0----------------------------------|
A-----------------4----2----0---------4----p0---|
G--------------------------------4--------------|
D-----------------------------------------------|
A------(0)--------------------------------------|
D--0----7----9\---4----5----0----5----7---------|



Intro Cont.(0:12-0:24)
D--4---po4p2po-2--po---------------------------------------------5h4po2po--|
A---------------------4/5----po5\4p2po4--po----4p2-po-2h4h5--po------------|
G--------------------------------------------------------------------------|
D--------------------------------------------4-----------------------------|
A--------------------------------------------------------------------------|
D--0-----------7------------9\--------4----------5---------0---------------|


D---------5-------------------|
A------5po---------7po7/12----|
G----4-----------6------------|
D-----------------------------|
A-----------------------------|
D--5----------7---------------|

Suggest correction
Give kudos to tab author, rate the tab!
1 2 3 4 5
comments
print report bad tab
2 comments total.
0 reply
O.F.D 50 Oct 30, 2006 04:26 AM

iv noticed some mistakes dude....it can be played in normal tuning without the capo....i think its just easier with the capo and different tuning cos it sounds exactly the same.....
Intro (0:00-0:11)
D--4----2----0----------------------------------|
A-----------------4----2----0----2----4----p0---|the note in bracket
G-------------------------------(4)-------------|should be on the
D-----------------------------------------------|second fret on the
A------(0)--------------------------------------|string down
D--0----7----9\---4----5----0----5----7---------|

there is a few other mistakes but only a couple....when i get round to it ill re issue it. cos comment boxes suck. but hey excellent tab man i heavily influenced my version using this. Peace

0 reply
bJoelFan13 226 Nov 09, 2006 06:22 PM

just to add the next little riff, its all i can figure out...

D--4p0h2h4p0--h2--------
A---------------h4s5s7h4
G-----------------------
D-----------------------
A-----------------------
D-----------------------

guest
You may want to rate the tab now too:
select rating
Wanna post a correction for this tab? Suggest correction